Oops, an error
Loading. Please wait.

Get Ready Hot Machete bass

753 views 3 this week
3 commentsread comments
1 2 3 4 5
x 3
add to favorites
×
Save as Personal and add changes to this tab that will be seen only by you. Learn more ›
×
You can save this tab as Personal to edit and correct it or add notes. All changes will be seen only by you. Learn more »
launch autoscroll
font size
0
reset
guitar tuner
edit
Autoscroll
slow
fast
+/-
esc
set tempo
stop
Author
Difficulty
-------------------------------------------------------------------------------
			     Get Ready (Hot Machete) - Jonezetta
-------------------------------------------------------------------------------

Tabbed By : JohnC27
e-mail: JohnC27@gmail.com

Tuning: Standard

Here are the bass tabs for the Jonezetta song, 'Get Ready (Hot Machete),' offof their 
album, 'Popularity.'

Intro (OOh Back and forth and...):
G|-----12----12----12----12----15----15---10---10----12----12----12----12----|
D|---------------------------------------------------------------------------|
A|--10----10----10----10----13----13----8----8----10----10----10----10-------|
E|------------------------------------------------------------------------10-|

G|-----------10---10---|
D|12----12-------------|  REPEAT 1x
A|---------8----8------|
E|---10----------------|

Verse (Welcome to the lights...):
G|--------3-------------------------------------------|
D|----5-5-----------------3------REPEAT 3x, then >----|
A|----------6-6-5-3-3-3-5-----------------------------|
E|--3-----------------------------------------------3-|

Chorus (Get ready like a hot machete...):
G|----------------------------------------------------------------|
D|-----------------------------------------0----------------------| REPEAT 1x
A|-1-1-1-1-1-1-1-1-3-3-3-3-3-5-3------1-3----3-1--------------1---|
E|-------------------------------3--3------------3--3-3-3-3-3---3-|


*REPEAT INTRO*


Verse (Lights out...):
G|--------3--------------------------------------------------3--------------|
D|----5-5-----------------3------REPEAT 1x, then>--------5-5----------------|
A|----------6-6-5-3-3-3-5-------------------------------------6-6-5-3-3-3-5-|
E|--3-----------------------------------------------3--3--------------------|

G|-----|
D|-3---|
A|-----|
E|---3-|

Chorus (Get ready like a hot machete...):
G|-----------------------------------------------------------------------------|
D|-----------------------------------------0----------------------REPEAT 2x----|
A|-1-1-1-1-1-1-1-1-3-3-3-3-3-5-3------1-3----3-1--------------1----------------|
E|-------------------------------3--3------------3--3-3-3-3-3---3--------------|

G|--------------------------------------------------------------------|
D| then >-0-0-0-0-0-0-0-0-1-1-1-1-1-1-0---------0---------------------|
A|------------------------------------------1-3---3-1-----------------|
E|--------------------------------------3-3-----------3-3-3-3-3-3-1-3-|


Vocal Interlude (Love ain't always a party!)
G|--------------------------------------------------------------------------|
D|------------------------(Vocal interlude, no bass)------------------------|
A|--------------------------------------------------------------------------|
E|--------------------------------------------------------------------------|


Guitar Solo:
G|---------------------------------|
D|---------------------------------| REPEAT 3x
A|---------------0-1-1-1-3---------|
E|-3-3-3-3-3-3-3-----------1-1-1-1-|

Chorus (Get ready like a hot machete...):
G|--------------------------------------------------------------------------|
D|-----------------------------------------0----------------------REPEAT 1x,|
A|-1-1-1-1-1-1-1-1-3-3-3-3-3-5-3------1-3----3-1--------------1-------------|
E|-------------------------------3--3------------3--3-3-3-3-3---3-----------|

G|-----------------------------------------------------------------------------|
D| then >-0-0-0-0-0-0-0-0-1-1-1-1-1-1-0---------0-------------0-----REPEAT-----| 1x
A|------------------------------------------1-3---3-1-----1-3---3-1------------|
E|--------------------------------------3-3-----------3-3-----------3----------|

===============================================================================

            
            
Suggest correction
Creating personal tab
Creating personal tab
You can edit any tab online and save it as your Personal.

You can edit, replace or remove any tab part or add personal notes – all changes will be seen only by you.

Personal tabs can be accessed anytime from any device, even offline.
Learn more »
Give kudos to tab author, rate the tab!
1 2 3 4 5
comments
print report bad tab
3 comments total.
+1 reply
JLanders09 277 Jun 19, 2007 03:50 PM

great tab!

nice to meet some bass players who also like Jonezetta...

wicked, kid:::

+1 reply
chris_cross 10 Jan 27, 2008 02:51 PM

awesome song but do u think u tab the guitar for this aswell please?

+1 reply
s0lid_1 10 Apr 15, 2008 08:18 PM

mint as tab oi

guest
You may want to rate the tab now too:
select rating
Wanna post a correction for this tab? Suggest correction