Oops, an error
Loading. Please wait.

Blueless Bird chords

1,159 views 12 this week
no commentswrite comment
1 2 3 4 5
x 3
add to favorites
×
Save as Personal and add changes to this tab that will be seen only by you. Learn more ›
×
You can save this tab as Personal to edit and correct it or add notes. All changes will be seen only by you. Learn more »
launch autoscroll
font size
0
reset
transpose
0
reset
simplify chords
display chords
guitar tuner
edit
Autoscroll
slow
fast
+/-
esc
set tempo
stop
Author
Strumming
There is no strumming pattern for this song yet. and get +5 IQ
-------------------------------------------------------------------------------
                             BLUELESS BIRD - Joni Fatora
-------------------------------------------------------------------------------
Tuning: Standard, No capo

Reference: https://soundcloud.com/jonifatora/bluelessbird

Links: https://www.facebook.com/JoniFatora
       http://www.jonifatora.net/


One of my favorite songs at the moment! Lovely tune.

Chords first, then interlude/solos/guitar overlay at the bottom. - in progress.

Please rate! :D and if there are any mistakes please comment before rating!

=============================================================================

Chords Used             |  Alternate voicing  | Bridge
-----------             | ------------------- | ------
  Gmaj7   E7  Am7   D7  |  Gmaj7 E7 Am7  D7   |   A7  D7  G  E7  Db6 Am7  D
e|---3----0----0----2---|---3-----------------|-----------------------------|
B|---3----3----1----1---|---3--------5---7----|-----------------------------|
G|---4----1----0----2---|---4----7---5---5----|---6---5---4---7---6---5-----|
D|---4----0----2----0---|---4----6---5---7----|---5---4---5---6---5---5-----|
A|---5----2----0--------|---5--------x---5----|-------5-------------------5-|
E|---3----0-------------|---3----7---5--------|---5-------3---7---6---5-----|

Strumming pattern - Bass mute pluck pluck mute pluck bass repeat
-----------------
    Gmaj7                        E7
e|---------------------------------------------------------------|
B|------X--3-3-x--3----x-3-3-x-3-----x--3-3-x--3-----x--3-3-x--3-|
G|------X--4-4-x--4----x-4-4-x-4-----x--0-0-x--0-----x--0-0-x--0-|
D|------X--4-4-x--4----x-4-4-x-4-----x--1-1-x--1-----x--1-1-x--1-|
A|------x--5-5-x--5----x-5-5-x-5-2---------------2---------------|
E|--3---------------3--------------------------------------------|
   Am7                           D7
e|------------------------------------x--2-2-x-2-----x--2-2-x-2--|
B|-----x--1-1-x--1----x--1-1-x--1-----x--1-1-x-1-----x--1-1-x-1--|
G|-----x--0-0-x--0----x--0-0-x--0-----x--2-2-x-2-----x--2-2-x-2--|
D|-----x--2-2-x--2----x--2-2-x--2-0--------------0---------------|
A|-0---------------0---------------------------------------------|
E|---------------------------------------------------and repeat--|

=============================================================================


[Intro]                                                         0.00 - 0.18


Gmaj7 E7 Am7 D7


[Verse]                                                         0.19 - 0.34

Gmaj7
Why do the birds sing 
    E7
so early in the dawn?
      Am7
Their honeysuckle melodies
  D7
before my day's alarm
                                                                0.35 - 0.50

Gmaj7
I imagine they're rehearsing
         E7
For some big elaborate show
     Am7
That I’ve not been invited to
   D7
So I should never know

                                                                0.51 - 1.06

Gmaj7
The songs they like to sing
     E7
I suppose they’re not too far
     Am7
From all the songs I sing
     D7
When I’m alone late in my car

                                                                1.07 - 1.22

Gmaj7
And if I were the postman
      E7
Awake for the afternoon
    Am7
I’d be the lucky someone
     D7
Eavesdropping on their tunes
                                                                1.23 - 1.37

Gmaj7
But I think I like it better
       E7
When I sleep late past their call
    Am7                                D7
For all I know perhaps the birds don’t even sing at all



[Interlude]                                                     1.38 - 2.08


Gmaj7 E7 Am7 D7 x2



[Bridge]                                                        2.09 - 2.32

       A7
We all know that
           D7
Love comes easily to you
            G
But not the hurt
         E7
You're impervious to blue
         Am7
I wish I knew
       D
How to sing about the other colours too


[Solo]                                                          2.33 - end

Gmaj7 E7 Am7 D7 X8


=================================================================================

[Interlude]

e|-------------------------------------------------------------------------------|
B|-------------------------------------------------------------------------------|
G|---------7--------7-9-10-10-9-7-----------7-7---------------------7------------|
D|--9--7-9---9~---9---------------9----9-10-----10-10-9-7----7-9-10---10-10-9-7--|
A|-------------------------------------------------------------------------------|
E|-------------------------------------------------------------------------------| X2


[Solo]
                                       trill                   2.33 - 2.49
e|---------------------------------------------8---7-------------------------|
B|---------------------------------------------------------------------------|
G|---------7--------------9--10-9----9-8h9p8h9--(9)--9-----4-----------------|
D|-/9--7-9---9--7h9p7\5-6------------------------------10----5---------------|
A|-------------------------------------------------------------5--4p-3~------|
E|---------------------------------------------------------------------------|
                                                                2.50 - 2.55
e|---------------------------------------------------------------------------|
B|--12h15--12----------------------------------------------------------------|
G|---------------12h16--12----11h14--11----7h9-7--9--------------------------|
D|--------------------------------------------------6~-----------------------|
A|---------------------------------------------------------------------------|
E|---------------------------------------------------------------------------|
                                                                2.56 - 3.02
e|---------------7-10--9p8p7------------------------7~------------14---------|
B|-------------8-------------10-8-----------------9-------------------15-----|
G|-----------9--------------------7-------------8----------------------------|
D|--6-7-9-10------------------------9----7-9-10------------------------------|
A|--------------------------------------------------------aaah---------------|
E|---------------------------------------------------------------------------|



************************************

| x    Dead note
| (n)  Ghost note
| h    Hammer-on
| p    Pull-off
| /    Slide up
| \    Slide down
| ~    Vibrato

************************************

            
            
Suggest correction
Creating personal tab
Creating personal tab
You can edit any tab online and save it as your Personal.

You can edit, replace or remove any tab part or add personal notes – all changes will be seen only by you.

Personal tabs can be accessed anytime from any device, even offline.
Learn more »
Give kudos to tab author, rate the tab!
1 2 3 4 5
comments
print report bad tab
guest
You may want to rate the tab now too:
select rating
Wanna post a correction for this tab? Suggest correction