Oops, an error
Loading. Please wait.

That Song About The Midway Tab

40 views 1 this week
no commentswrite comment
1 2 3 4 5
3 more votes to show rating
add to favorites
launch autoscroll
font size
0
reset
how to read this tab
guitar tuner
Autoscroll
slow
fast
+/-
esc
set tempo
stop
Help us to improve Ultimate-Guitar.com Take our survey!
×
Author
Difficulty
Capo
intermediate
2nd fret
About this tab version
With correct tuning and capo placement. Was this info helpful? Yes No
Joni Mitchell - That Song About the Midway (1969)

Tuning: DADEAD
Capo: 2nd Fret

[Intro]

d|-----0-------0-------2-------2---|-----0-------0---------------0---|
A|-------0-------0-0h3---3-------3-|-0h2---2-------2-0-----0---------|
E|-0h2-----0h2-----0h3-----0h3-----|-0h3-----0h3-----0h2-------------|
D|---------------------------------|---------------------------------|
A|---------------------------------|---------------------------------|
D|-0-----0---------0-----0---------|-0-----0---------0---------------|

[Verse]

d|-------------0---------------0---|-------0---------|-----0-------0-------0-------0---|
A|---0-----0-----0-5-----4---------|-2-------2-------|-----0-0-------0-----0-0-------0-|
E|-----0-----0-------2-----2-------|---3-------3-----|-0h2---0-0h2-----0h2---0-0h2-----|
D|-------2-------------2-----2---0-|-----0-------0---|---------------------------------|
A|-0-------------------------------|-----------------|---------------------------------|
D|-----------------5-----4---------|-0-----0-------0-|-0-----0---------0-----0---------|

d|-------------0---------------0---|-------0---------|-----0-------0-------0-------0---|
A|---0-----0-----0-5-----4---------|-2-------2-------|-----0-0-------0-----0-0-------0-|
E|-----0-----0-------2-----2-------|---3-------3-----|-0h2---0-0h2-----0h2---0-0h2-----|
D|-------2-------------2-----2---0-|-----0-------0---|---------------------------------|
A|-0-------------------------------|-----------------|---------------------------------|
D|-----------------5-----4---------|-0-----0-------0-|-0-----0---------0-----0---------|

d|-2-----2------2---0-----0-----0---|-4-----4-----4---2-----2-----2---|
A|-3-----3------3---2-----2-----2---|-5-----5-----5---3-----3-----3---|
E|-----3------3---------3-----3-----|-----5-----5---------3-----3-----|
D|---0------0-----0---0-----0-----0-|---0-----0-----0---0-----0-----0-|
A|----------------------------------|---------------------------------|
D|-0-----0----------0-----0---------|-0-----0---------0-----0---------|

d|-0-----0------0---0-----0------0---|-----0-------0-------0-------0---|
A|-2-----2------2---0-----0------0---|-------0-------0-------0-----0-0-|
E|-----3------3---------3------3-----|-0h2-----0h2-----0h2-----0h2---0-|
D|---0------0-----0---0------0-----0-|---------------------------------|
A|-----------------------------------|---------------------------------|
D|-0-----0----------0-----0----------|-0-----0---------0-----0---------|

[Chorus]

d|-2-----2------2---2-----2------0---|-0-----0------0---|-----0-------0-------0-------0---|
A|-3-----3------3---3-----3------0---|-0-----0------0---|-----0-0-------0-----0-0-------0-|
E|-----3------3---------3------3-0---|-----3------3-----|-0h2---0-0h2-----0h2---0-0h2-----|
D|---0------0-----0---0------0---0---|---0------0-----0-|---------------------------------|
A|-----------------------------------|------------------|---------------------------------|
D|-0-----0----------0-----0------0---|-0-----0----------|-0-----0---------0-----0---------|

d|-2-----2------2---2-----2------2---|-----0-------0-------0-------0---|
A|-3-----3------3---3-----3------3---|-----0-0-------0-----0-0-------0-|
E|-----3------3---------3------3-----|-0h2---0-0h2-----0h2---0-0h2-----|
D|---0------0-----0---0------0-----0-|---------------------------------|
A|-----------------------------------|---------------------------------|
D|-0-----0----------0-----0------0---|-0-----0---------0-----0---------|

d|-2-----2------2---2-----2------0---|-0-----0------0---|-------0-----0-------0-------0---|
A|-3-----3------3---3-----3------0---|-0-----0------0---|-0-----0-----0---0---0-0-------0-|
E|-----3------3---------3------3-0---|-----3------3-----|-----0-----0-----0h2---2p0h2-----|
D|---0------0-----0---0------0---0---|---0------0-----0-|---0-----0-----0-----------------|
A|-----------------------------------|------------------|---------------------------------|
D|-0-----0----------0-----0------0---|-0-----0----------|-0-----0---------0-----0---------|

d|-2-----2------2---2-----2------2---|
A|-3-----3------3---3-----3------3---|
E|-----3------3---------3------3-----|
D|---0------0-----0---0------0-----0-|
A|-----------------------------------|
D|-0-----0----------0-----0------0---|

d|-----0-------0-------2-------2---|-----0-------0---------------0---|
A|-------0-------0-0h3---3-------3-|-0h2---2-------2-0-----0---------|
E|-0h2-----0h2-----0h3-----0h3-----|-0h3-----0h3-----0h2-------------|
D|---------------------------------|---------------------------------|
A|---------------------------------|---------------------------------|
D|-0-----0---------0-----0---------|-0-----0---------0---------------|

[Verse 2]

The same as verse 1.

d|-------------0---------------0---|-------0---------|-----0-------0-------0-------0---|
A|---0-----0-----0-5-----4---------|-2-------2-------|-----0-0-------0-----0-0-------0-|
E|-----0-----0-------2-----2-------|---3-------3-----|-0h2---0-0h2-----0h2---0-0h2-----|
D|-------2-------------2-----2---0-|-----0-------0---|---------------------------------|
A|-0-------------------------------|-----------------|---------------------------------|
D|-----------------5-----4---------|-0-----0-------0-|-0-----0---------0-----0---------|

d|-------------0---------------0---|-------0---------|-----0-------0-------0-------0---|
A|---0-----0-----0-5-----4---------|-2-------2-------|-----0-0-------0-----0-0-------0-|
E|-----0-----0-------2-----2-------|---3-------3-----|-0h2---0-0h2-----0h2---0-0h2-----|
D|-------2-------------2-----2---0-|-----0-------0---|---------------------------------|
A|-0-------------------------------|-----------------|---------------------------------|
D|-----------------5-----4---------|-0-----0-------0-|-0-----0---------0-----0---------|

d|-2-----2------2---0-----0-----0---|-4-----4-----4---2-----2-----2---|
A|-3-----3------3---2-----2-----2---|-5-----5-----5---3-----3-----3---|
E|-----3------3---------3-----3-----|-----5-----5---------3-----3-----|
D|---0------0-----0---0-----0-----0-|---0-----0-----0---0-----0-----0-|
A|----------------------------------|---------------------------------|
D|-0-----0----------0-----0---------|-0-----0---------0-----0---------|

d|-0-----0------0---0-----0------0---|-----0-------0-------0-------0---|
A|-2-----2------2---0-----0------0---|-------0-------0-------0-----0-0-|
E|-----3------3---------3------3-----|-0h2-----0h2-----0h2-----0h2---0-|
D|---0------0-----0---0------0-----0-|---------------------------------|
A|-----------------------------------|---------------------------------|
D|-0-----0----------0-----0----------|-0-----0---------0-----0---------|

[Chorus 2]

The same as chorus 1.

d|-2-----2------2---2-----2------0---|-0-----0------0---|-----0-------0-------0-------0---|
A|-3-----3------3---3-----3------0---|-0-----0------0---|-----0-0-------0-----0-0-------0-|
E|-----3------3---------3------3-0---|-----3------3-----|-0h2---0-0h2-----0h2---0-0h2-----|
D|---0------0-----0---0------0---0---|---0------0-----0-|---------------------------------|
A|-----------------------------------|------------------|---------------------------------|
D|-0-----0----------0-----0------0---|-0-----0----------|-0-----0---------0-----0---------|

d|-2-----2------2---2-----2------2---|-----0-------0-------0-------0---|
A|-3-----3------3---3-----3------3---|-----0-0-------0-----0-0-------0-|
E|-----3------3---------3------3-----|-0h2---0-0h2-----0h2---0-0h2-----|
D|---0------0-----0---0------0-----0-|---------------------------------|
A|-----------------------------------|---------------------------------|
D|-0-----0----------0-----0------0---|-0-----0---------0-----0---------|

d|-2-----2------2---2-----2------0---|-0-----0------0---|-------0-----0-------0-------0---|
A|-3-----3------3---3-----3------0---|-0-----0------0---|-0-----0-----0---0---0-0-------0-|
E|-----3------3---------3------3-0---|-----3------3-----|-----0-----0-----0h2---2p0h2-----|
D|---0------0-----0---0------0---0---|---0------0-----0-|---0-----0-----0-----------------|
A|-----------------------------------|------------------|---------------------------------|
D|-0-----0----------0-----0------0---|-0-----0----------|-0-----0---------0-----0---------|

d|-2-----2------2---2-----2------2---|
A|-3-----3------3---3-----3------3---|
E|-----3------3---------3------3-----|
D|---0------0-----0---0------0-----0-|
A|-----------------------------------|
D|-0-----0----------0-----0------0---|

d|-----0-------0-------2-------2---|-----0-------0---------------0---|
A|-------0-------0-0h3---3-------3-|-0h2---2-------2-0-----0---------|
E|-0h2-----0h2-----0h3-----0h3-----|-0h3-----0h3-----0h2-------------|
D|---------------------------------|---------------------------------|
A|---------------------------------|---------------------------------|
D|-0-----0---------0-----0---------|-0-----0---------0---------------|

[Verse 3]

The same as verse 1.

d|-------------0---------------0---|-------0---------|-----0-------0-------0-------0---|
A|---0-----0-----0-5-----4---------|-2-------2-------|-----0-0-------0-----0-0-------0-|
E|-----0-----0-------2-----2-------|---3-------3-----|-0h2---0-0h2-----0h2---0-0h2-----|
D|-------2-------------2-----2---0-|-----0-------0---|---------------------------------|
A|-0-------------------------------|-----------------|---------------------------------|
D|-----------------5-----4---------|-0-----0-------0-|-0-----0---------0-----0---------|

d|-------------0---------------0---|-------0---------|-----0-------0-------0-------0---|
A|---0-----0-----0-5-----4---------|-2-------2-------|-----0-0-------0-----0-0-------0-|
E|-----0-----0-------2-----2-------|---3-------3-----|-0h2---0-0h2-----0h2---0-0h2-----|
D|-------2-------------2-----2---0-|-----0-------0---|---------------------------------|
A|-0-------------------------------|-----------------|---------------------------------|
D|-----------------5-----4---------|-0-----0-------0-|-0-----0---------0-----0---------|

d|-2-----2------2---0-----0-----0---|-4-----4-----4---2-----2-----2---|
A|-3-----3------3---2-----2-----2---|-5-----5-----5---3-----3-----3---|
E|-----3------3---------3-----3-----|-----5-----5---------3-----3-----|
D|---0------0-----0---0-----0-----0-|---0-----0-----0---0-----0-----0-|
A|----------------------------------|---------------------------------|
D|-0-----0----------0-----0---------|-0-----0---------0-----0---------|

d|-0-----0------0---0-----0------0---|-----0-------0-------0-------0---|
A|-2-----2------2---0-----0------0---|-------0-------0-------0-----0-0-|
E|-----3------3---------3------3-----|-0h2-----0h2-----0h2-----0h2---0-|
D|---0------0-----0---0------0-----0-|---------------------------------|
A|-----------------------------------|---------------------------------|
D|-0-----0----------0-----0----------|-0-----0---------0-----0---------|

[Chorus 3]

d|-2-----2------2---2-----2------0---|-0-----0------0---|-----0-------0-------0-------0---|
A|-3-----3------3---3-----3------0---|-0-----0------0---|-----0-0-------0-----0-0-------0-|
E|-----3------3---------3------3-0---|-----3------3-----|-0h2---0-0h2-----0h2---0-0h2-----|
D|---0------0-----0---0------0---0---|---0------0-----0-|---------------------------------|
A|-----------------------------------|------------------|---------------------------------|
D|-0-----0----------0-----0------0---|-0-----0----------|-0-----0---------0-----0---------|

d|-2-----2------2---2-----2------2---|-----0-------0-------0-------0---|
A|-3-----3------3---3-----3------3---|-----0-0-------0-----0-0-------0-|
E|-----3------3---------3------3-----|-0h2---0-0h2-----0h2---0-0h2-----|
D|---0------0-----0---0------0-----0-|---------------------------------|
A|-----------------------------------|---------------------------------|
D|-0-----0----------0-----0------0---|-0-----0---------0-----0---------|

d|-2-----2------2---2-----2------0---|-0-----0------0---|-------0-----0-------0-------0---|
A|-3-----3------3---3-----3------0---|-0-----0------0---|-0-----0-----0---0---0-0-------0-|
E|-----3------3---------3------3-0---|-----3------3-----|-----0-----0-----0h2---2p0h2-----|
D|---0------0-----0---0------0---0---|---0------0-----0-|---0-----0-----0-----------------|
A|-----------------------------------|------------------|---------------------------------|
D|-0-----0----------0-----0------0---|-0-----0----------|-0-----0---------0-----0---------|

d|-2-----2------2---2-----2------2---|-----0-------0-------0-------0---|
A|-3-----3------3---3-----3------3---|-----0-0-------0-----0-0-------0-|
E|-----3------3---------3------3-----|-0h2---0-0h2-----0h2---0-0h2-----|
D|---0------0-----0---0------0-----0-|---------------------------------|
A|-----------------------------------|---------------------------------|
D|-0-----0----------0-----0------0---|-0-----0---------0-----0---------|

d|-2-----2------2---2-----2------2---|-2-----2------2---2-----2------2---|
A|-3-----3------3---3-----3------3---|-3-----3------3---3-----3------3---|
E|-----3------3---------3------3-----|-----3------3---------3------3-----|
D|---0------0-----0---0------0-----0-|---0------0-----0---0------0-----0-|
A|-----------------------------------|-----------------------------------|
D|-0-----0----------0-----0------0---|-0-----0----------0-----0------0---|

[Outro]

d|-----0-------0-------2-------2---|-----0-------0-------0-------0---|
A|-------0-------0-0h3---3-------3-|-0h2---2-------2-0-----0-------0-|
E|-0h2-----0h2-----0h3-----0h3-----|-0h3-----0h3-----0h2-----0h2-----|
D|---------------------------------|---------------------------------|
A|---------------------------------|---------------------------------|
D|-0-----0---------0-----0---------|-0-----0---------0-----0---------|

d|-----0-------0-------2-------2---|-----0-------0---------------0---|
A|-------0-------0-0h3---3-------3-|-0h2---2-------2-0-----0---------|
E|-0h2-----0h2-----0h3-----0h3-----|-0h3-----0h3-----0h2-------------|
D|---------------------------------|---------------------------------|
A|---------------------------------|---------------------------------|
D|-0-----0---------0-----0---------|-0-----0---------0---------------|

**************************

h - hammer on
p - pull-off

**************************
Suggest correction
Give kudos to tab author, rate the tab!
1 2 3 4 5
comments
print report bad tab
guest
You may want to rate the tab now too:
select rating
Wanna post a correction for this tab? Suggest correction