Oops, an error
Loading. Please wait.

Woodstock chords

version 4
version 4

Whole song

Interactive

514 views 24 this week
no commentswrite comment
1 2 3 4 5
x 4
add to favorites
×
Save as Personal and add changes to this tab that will be seen only by you. Learn more ›
×
You can save this tab as Personal to edit and correct it or add notes. All changes will be seen only by you. Learn more »
launch autoscroll
font size
0
reset
transpose
0
reset
simplify chords
display chords
guitar tuner
edit
Autoscroll
slow
fast
+/-
esc
set tempo
stop
About this tab version
Mine's different because it's the full version (contains the bridge after the third chorus), is in the same key as the original, unlike the other versions, and has more accurate chords. Was this info helpful? Yes No
Strumming
There is no strumming pattern for this song yet. and get +5 IQ
This song's in the key of Ebm. I play piano and I know this song there, so thought I'd transcribe it.
Tune guitar a half-step down to play in Ebm, to stay in original key.

Chords: Eb Ab Db Gb Bb Eb
Em7     0  2  2  0  3  3
Em7/A   x  0  2  0  0  0 
E5      0  2  2  x  x  x
A5      x  0  2  2  x  x
Em      x  x  2  0  0  0
D       x  x  0  2  3  2
B       x  x  4  4  4  2
A       x  x  2  2  2  0      

[Intro - skip this if you want]

eb|-------------------------|
Bb|-------------------------|
Gb|-------------------------|
Db|--------0h2--------------|
Ab|--0h1h2------------------|
Eb|-------------------------|

   Em7       Em7/A
eb|-3-----------0----0--3--5------0---0--3--5--7--10-----12-------------------|
Bb|-3-----------0----0--3--5------0---0--3--5--8--10--12----------------------|
Gb|-0---0-------------------------------------------------------------0-2-----|
Db|-2--------2----2------------2----2---------------------------0---2---------|
Ab|-2--------0----0------------0----0-----------------------------4-----------|
Eb|-0-------------------------------------------------------------------------|

               Em
eb|-------------------------0-----------------|
Bb|-----------------0---3---0-------0---3-----|
Gb|-----------------0---2-----------0---2-----|
Db|--------0----------------------------------|
Ab|--0--2-------2---------------2-------------|
Eb|-------------0---------------0-------------|

[Verse] E5   

   E5
I came upon a child of God
        A5
He was walking along the road
       A5
And I asked him, "Where are you going?"
             E5     
And this he told me...

     E5        
I'm going on down to Yasgur's Farm,
           A5
I'm gonna join in a rock and roll band.
   A5
I'm gonna camp out on the land.
                E5
I'm gonna get my soul free.

[Chorus]
          A5
We are stardust.
     A5
We are golden.
        Em               D                  B   A   E5
And we've got to get ourselves back to the gar - den.

[Verse]
     E5
Then can I walk beside you?
       A5 
I have come here to lose the smog,
      A5                       E5
And I feel to be a cog in something turning.

     E5        
Well maybe it is just the time of year,
    A5
Or maybe it's the time of man.
          A5
I don't know who I am,
              E5
But you know life is for learning.

[Chorus]
          A5
We are stardust.
     A5
We are golden.
        Em               D                  B   A   E5
And we've got to get ourselves back to the gar - den.

[Verse]
       E5
By the time we got to Woodstock,
          A5
We were half a million strong
      A5                        E5
And Everywhere there was song and celebration.

         E5              
And I dreamed I saw the bombers
        A5
Riding shotgun in the sky,
                       A5
And they were turning into butterfli - es
    E5
Above our nation.

[Chorus]
         A
We are stardust.
A5
Billion year old carbon.
      A
We are golden..
A5
Caught in the devil's bargain
      Em                 D                 B A  Em
And we've got to get ourselves back to the garden.

[Bridge]
Em      D  
Di-i-i d-i-i
A      Em  
Di-i-i d-i-i

Em      D  
Di-i-i d-i-i
A      Em  
Di-i-i d-i-i

A      Em  
Di-i-i d-i-i
A      D     E5
Di-i-i d-i-i

[Outro - skip this if you want]
eb|-------------------------|
Bb|-------------------------|
Gb|-------------------------|
Db|--------0h2--------------|
Ab|--0h1h2------------------|
Eb|-------------------------|

                              Em
eb|----0---0--3--5--7--10-----0------|
Bb|----0---0--3--5--8--10-----0------|
Gb|---------------------------0------|
Db|-2----2--------------------2------|
Ab|-0----0--------------------2------|
Eb|---------------------------0------|
Suggest correction
Creating personal tab
Creating personal tab
You can edit any tab online and save it as your Personal.

You can edit, replace or remove any tab part or add personal notes – all changes will be seen only by you.

Personal tabs can be accessed anytime from any device, even offline.
Learn more »
comments
print report bad tab
guest
You may want to rate the tab now too:
select rating
Wanna post a correction for this tab? Suggest correction