Oops, an error
Loading. Please wait.

Mosaic tab

40 views 1 this week
no commentswrite comment
1 2 3 4 5
3 more votes to show rating
add to favorites
×
Save as Personal and add changes to this tab that will be seen only by you. Learn more ›
×
You can save this tab as Personal to edit and correct it or add notes. All changes will be seen only by you. Learn more »
launch autoscroll
font size
0
reset
how to read this tab
guitar tuner
edit
Autoscroll
slow
fast
+/-
esc
set tempo
stop
Tabbed By: JPK

Johnny Brush - "Mosaic"

Standard Tuning
Capo 3

Chords:
Dm      x0023x
C       x3201x
Gadd11  32000x
F/C     x3321x
Am      x0221x

[Intro]
e|---------3-----------------------------------------------------------------|
B|---0h1-------1-------------------------------------------------------------|
G|---------------------0-------2---0h2---0---0---0-------0-------------------|
D|-----------------0-------2---3-------------2-------0-------0---------------|
A|---0-------------2-------3---3-------------3-------2-----------------------|
E|-----------------3-------3-------------------------3-----------------------|

e|---------3-----------------------------------------------------------------|
B|---0h1-------1-------1-----------------------------------------------------|
G|-----------------0-----------0-------2---0h2---0---0---0-------0-----------|
D|-------------------------0-------2---3-------------2-------0-------0-------|
A|---0---------------------2-------3---3-------------3-------2---------------|
E|-------------------------3-------3-------------------------3---------------|

[Verse]
    "Dry weeds, tossed in the fire..."
e|---------------------------------------------------------------------------|
B|---1-----------------------------------------------------------------------|
G|-----------------------0-----------2---0h2---0---0---0-------0-------------|
D|-----------------0-----------2-----3-------------2-------0-------0---------|
A|---0-------------2-----------3-----3-------------3-------2-----------------|
E|-----------------3-----------3---------------------------3-----------------|


e|---------3-------------------------------------------------------------|
B|---0h1-------1---------------------------------------------------------|
G|---------------------0-------2---0h2---0---0---0-------0---------------|
D|-----------------0-------2---3-------------2-------0-------0-----------|
A|---0-------------2-------3---3-------------3-------2-------------------|
E|-----------------3-------3-------------------------3-------------------|


e|------------------------------------------|
B|---------------------------------1--------|
G|---2---0h2---0---0---0-------0---0--------|
D|---3-------------2-------0-------0--------|
A|---3-------------3-------2-------2--------|
E|-------------------------3----------------|

[Chorus]
 Dm              C              Gadd11
 Ooh    Your    past    will    erode,
 Dm              C                 Gadd11
 Ooh    Like    moss    on    a    stone,
 Dm                 C
 Ooh    You'll    never    know,
 F/C      C    Gadd11
 Where    to    go,
 F/C   Gadd11
 Stay    on    the    road

e|---------3-------------------------------------------------------------|
B|---0h1-------1---------------------------------------------------------|
G|---------------------0-------2---0h2---0---0---0-------0---------------|
D|-----------------0-------2---3-------------2-------0-------0-----------|
A|---0-------------2-------3---3-------------3-------2-------------------|
E|-----------------3-------3-------------------------3-------------------|

[Verse]
 Am             Gadd11                   C
 Raw    hide    kissed    by    the    flame,
 F/C     C    Gadd11
 Mmm    mmm    mmm,
 Am                    Gadd11                   C
 His    past    puts    his    heart    to    shame,
 F/C     C    Gadd11
 Mmm    mmm    mmm,
 F/C     C    Gadd11
 Mmm    mmm    mmm

[Chorus]
 Dm              C              Gadd11
 Ooh    Your    past    will    erode,
 Dm               C                   Gadd11
 Ooh    Like    grass    on    the    road,
 Dm      C
 Ooh    All    you    know,
        F/C     C    Gadd11
 Is    where    to    go,
         F/C   Gadd11
 Just    stay    on    the    road

e|---------3-------------------------------------------------------------|
B|---0h1-------1---------------------------------------------------------|
G|---------------------0-------2---0h2---0---0---0-------0---------------|
D|-----------------0-------2---3-------------2-------0-------0-----------|
A|---0-------------2-------3---3-------------3-------2-------------------|
E|-----------------3-------3-------------------------3-------------------|

[Verse]
   Am      Gadd11                  C
 Whisper    dust    in    the    light,
 F/C     C    Gadd11
 Mmm    mmm    mmm,
 Am         Gadd11            C
 Restful    heart    of    delight,
 F/C     C    Gadd11
 Mmm    mmm    mmm,
 F/C     C    Gadd11
 Mmm    mmm    mmm

[Chorus]
 Dm              C              Gadd11
 Mmm    Your    past    will    erode,
 Dm               C                  Gadd11
 Mmm    Like    grass    on    the    road,
 Dm        C
 Hmhmm    All    you    know,
        F/C     C    Gadd11
 Is    where    to    go,
 Dm              C              Gadd11
 Ooh    Your    past    will    erode,
 Dm              C                 Gadd11
 Ooh    Like    moss    on    a    stone,
 Dm       C
 Oooh    All    you    know,
        F/C     C    Gadd11 
 Is    where    to    go,
         F/C    Gadd11 
 Just    stay    on    the    road

[Outro]
e|---------3-----------------------------------------------------------------|
B|---0h1-------1-------------------------------------------------------------|
G|---------------------0-------2---0h2---0---0---0-------0-------------------|
D|-----------------0-------2---3-------------2-------0-------0---------------|
A|---0-------------2-------3---3-------------3-------2-----------------------|
E|-----------------3-------3-------------------------3-----------------------|


e|---------3-----------------------------------------------------------------|
B|---0h1-------1-------1-----------------------------------------------------|
G|-----------------0-----------0-------2---0h2---0---0---0-------0-----------|
D|-------------------------0-------2---3-------------2-------0-------0-------|
A|---0---------------------2-------3---3-------------3-------2---------------|
E|-------------------------3-------3-------------------------3---------------|


e|---------------------------------------|
B|---------------------------------------|
G|---2---0h2---0---0---0------0----------|
D|---3-------------2------2---0----------|
A|---3-------------3----------2----------|
E|----------------------------3----------| 

            
            
Suggest correction
Creating personal tab
Creating personal tab
You can edit any tab online and save it as your Personal.

You can edit, replace or remove any tab part or add personal notes – all changes will be seen only by you.

Personal tabs can be accessed anytime from any device, even offline.
Learn more »
Give kudos to tab author, rate the tab!
1 2 3 4 5
comments
print report bad tab
guest
You may want to rate the tab now too:
select rating
Wanna post a correction for this tab? Suggest correction