Oops, an error
Loading. Please wait.

7 Am 2 Bottles And The Wrong Road Tab

8,333 views 1 this week
no commentswrite comment
1 2 3 4 5
1 last vote to show rating
add to favorites
launch autoscroll
font size
0
reset
how to read this tab
guitar tuner
Autoscroll
slow
fast
+/-
esc
set tempo
stop
Help us to improve Ultimate-Guitar.com Take our survey!
×
Band:Jonny Craig
Song:7 AM, 2 Bottles And The Wrong Road

Tabbed by:untitled31

Tuning:Standard

Intro/Verse

Lead-Right
e|--3----------3------8----------8------|
B|--4------------4----8------------8----|
G|--5----5---5-----5--8-----8--------8--|
D|--5--5---5------------/10---10--------|x4
A|--3-----------------------------------|
E|--------------------------------------|

e|--8---------8-----------------8----8----------8------|
B|--8---------8---------8-------8----8------------8----|
G|--8--8------8----8------8-----8----8-----8--------8--|
D|-------10-----10---10-----10----------10---10--------|x2
A|-----------------------------------------------------|
E|-----------------------------------------------------|


Rhythm-Left
e|------------------8-------------|
B|------------------8-------------|
G|--5--5-----3------8----5--------|
D|--5----5-----5-----------5------|x8
A|--3------3-----5-----3-----3\1--|
E|--------------------------------|

Chorus

Lead
e|---6-8-8-8-6----6-8-8-8-10-6--|
B|--8---------8--8--------------|
G|------------------------------|
D|------------------------------|x4
A|------------------------------|
E|------------------------------|

Rhythm
e|--------------------------------------|
B|--------------------------------------|
G|--------------------5555555555555555--|
D|--55555555-33333333-5555555555555555--|x2
A|--55555555-33333333-3333333333333333--|
E|--33333333-11111111-------------------|

Verse 2

Lead
e|--3----------3------8----------8------|
B|--4------------4----8------------8----|
G|--5----5---5-----5--8-----8--------8--|
D|--5--5---5------------/10---10--------|x4
A|--3-----------------------------------|
E|--------------------------------------|

Rhythm
e|------------------8-------------|
B|------------------8-------------|
G|--5--5-----3------8----5--------|
D|--5----5-----5-----------5------|x4
A|--3------3-----5-----3-----3\1--|
E|--------------------------------|

Chorus 2

Lead
e|---6-8-8-8-6----6-8-8-8-10-6--|
B|--8---------8--8--------------|
G|------------------------------|
D|------------------------------|x4
A|------------------------------|
E|------------------------------|

Rhythm
e|--------------------------------------|
B|--------------------------------------|
G|--------------------5555555555555555--|
D|--55555555-33333333-5555555555555555--|x2
A|--55555555-33333333-3333333333333333--|
E|--33333333-11111111-------------------|

Bridge-Bass Break

Lead-Listen when to come in
e|--/8-6------------------------|
B|------------8\----------------|
G|-----------10\----------------|
D|----------------------x-xxxx--|
A|----------------------x-xxxx--|
E|----------------------x-xxxx--|

Chorus 3

Lead
e|---6-8-8-8-6----6-8-8-8-10-6--|
B|--8---------8--8--------------|
G|------------------------------|
D|------------------------------|x8
A|------------------------------|
E|------------------------------|

Rhythm
e|--------------------------------------|
B|--------------------------------------|
G|--------------------5555555555555555--|
D|--55555555-33333333-5555555555555555--|x4
A|--55555555-33333333-3333333333333333--|
E|--33333333-11111111-------------------|

Outro

Solo-Starts on the left headphone then the right for the second time
e|----6h8----11p8-6--6h8---6-8p6----------|
B|---8------8-------8-----8------8-6-6----|
G|--8------8-------------8-------------8--|
D|----------------------------------------|x2
A|----------------------------------------|
E|----------------------------------------|

Lead
e|--3----------3------8----------8------|
B|--4------------4----8------------8----|
G|--5----5---5-----5--8-----8--------8--|
D|--5--5---5------------/10---10--------|x8
A|--3-----------------------------------|
E|--------------------------------------|

Rhythm-Left
e|------------------8-------------|
B|------------------8-------------|
G|--5--5-----3------8----5--------|
D|--5----5-----5-----------5------|x8
A|--3------3-----5-----3-----3\1--|
E|--------------------------------|

************************************

| /   slide up
| \   slide down
| h   hammer-on
| p   pull-off
| x   Mute note
| b   Bend
| pb  Pre-bend
| br  Bend release
| pbr Pre-bend release
| brb Bend release bend

************************************
Suggest correction
Give kudos to tab author, rate the tab!
1 2 3 4 5
comments
print report bad tab
guest
You may want to rate the tab now too:
select rating
Wanna post a correction for this tab? Suggest correction