Oops, an error
Loading. Please wait.

Good Mornin Little Schoolgirl Bass Tab

1,120 views 1 this week
no commentswrite comment
1 2 3 4 5
3 more votes to show rating
add to favorites
launch autoscroll
font size
0
reset
guitar tuner
Autoscroll
slow
fast
+/-
esc
set tempo
stop
Help us to improve Ultimate-Guitar.com Take our survey!
×
Difficulty
novice
E/----------5-3----------|
A/5-5-3-5-3---------5----|   x4
D/--------------5-3------|
G/-----------------------|

E/3-------------6-3--|
A/----------5-3------|   x2
D/--5-3-5-3----------|
G/-------------------|

E/----------5-3----------|
A/5-5-3-5-3---------5----|   X2
D/--------------5-3------|
G/-----------------------|

E/5-------------8-5-3------------6-3-|
A/----------7-5--------------5-3-----|    X1
D/--7-5-7-5----------5-3-5-3---------|
G/-----------------------------------|

E/----------5-3-----------|
A/5-5-3-5-3---------5-----|    X2
D/--------------5-3-------|
G/------------------------|

REPEAT
Suggest correction
Give kudos to tab author, rate the tab!
1 2 3 4 5
comments
print report bad tab
guest
You may want to rate the tab now too:
select rating
Wanna post a correction for this tab? Suggest correction