Oops, an error
Loading. Please wait.

Good Morning Little School Girl Bass Tab

3,750 views 18 this week
no commentswrite comment
1 2 3 4 5
please rate
add to favorites
launch autoscroll
font size
0
reset
guitar tuner
Tab Pro tools
  • play this tab
  • loop segment
  • change instrument
  • show fretboard
  • metronome
×
Best way to learn
"Good Morning Little School Girl"
Autoscroll
slow
fast
+/-
esc
set tempo
stop
Contributor
Jonny Lang
Good Morning Little School Girl


G---5-7-7-5-7-5-----------5-7-7-5-7-5-------------------------|
D---------------7-5-0-3-0-------------7-5-0-3-0---------------|
A-------------------------------------------------------------|   X2
E-------------------------------------------------------------|


G---10-12-12-10-12-10-----------------10-12-12-10-12-10------------------|
D---------------------12-10-----------------------------12-10------------|
A---------------------------10-13-10--------------------------10-13-10---|
E------------------------------------------------------------------------|


G---5-7-7-5-7-5-----------12-14-14-12-14-12------------------------------|
D---------------7-5-0-3-0-------------------14-12------------------------|
A-------------------------------------------------12-15-12---------------|
E------------------------------------------------------------------------|


G---10-12-12-10-12-10-----------------------------------------------|
D---------------------12-10-----------------------------------------|
A---------------------------10-13-10--------------------------------|
E-------------------------------------------------------------------|

REPEAT UNTIL THE END OF THE SONG
comments
We did not receive enough feedback on this tab! Please rate:
print report bad tab
1 2 3 4 5
I want to post or [tab]
guest
You may want to rate the tab now too:
select rating
Please do not post tabs as comments. Select "correction" instead!