Oops, an error
Loading. Please wait.

Matchbox Bass Tab

version 2
version 2

Whole song

Interactive

1,992 views 3 this week
no commentswrite comment
1 2 3 4 5
please rate
add to favorites
launch autoscroll
font size
0
reset
guitar tuner
Tab Pro tools
  • play this tab
  • loop segment
  • change instrument
  • show fretboard
  • metronome
×
Best way to learn
"Matchbox"
Autoscroll
slow
fast
+/-
esc
set tempo
stop
G-----2-4-5-4-2---2-4-------------7-9-10-9-7-------2-4-5-4-2--------9-11-----|
D-0-4-----------4-----0-2-3-4-5-9------------9-0-4-----------0-7-11------5-9-|
A----------------------------------------------------------------------------|
E----------------------------------------------------------------------------|

G-7-9-----2-4-5-4-2-----|
D-----0-4-----------4-0-|
A-----------------------|
E-----------------------|

repeats through the entire song
comments
We did not receive enough feedback on this tab! Please rate:
print report bad tab
1 2 3 4 5
I want to post or [tab]
guest
You may want to rate the tab now too:
select rating
Please do not post tabs as comments. Select "correction" instead!