Oops, an error
Loading. Please wait.

On My Feet Again Tab

1,912 views 1 this week
no commentswrite comment
1 2 3 4 5
please rate
add to favorites
launch autoscroll
font size
0
reset
how to read this tab
guitar tuner
Autoscroll
slow
fast
+/-
esc
set tempo
stop
Help us to improve Ultimate-Guitar.com Take our survey!
×
Author
--------------------------------------------------------------------------
                      Jonny Lang - On my feet again
--------------------------------------------------------------------------
Tabbed by:Gary Elechicon
Email:smooth_cs2000@yahoo.com

Tuning:standard

Intro:Eb  Dm   Gm


Verse: Eb Dm  Gm

Heart is heavy Soul is thirsty Body's achin

Fill:  Gm
e|----------------------------|
B|----------------------------|
G|----3h5---3--------3--------|
D|--5------------/5----5~~~~--|
A|----------------------------|
E|----------------------------|

I am desperately in need of restoration

e|---------------------------------|
B|---------------------------------|
G|--------3------3/5---3-----------|
D|-3-3/5------------------3h5~~~---|
A|---------------------------------|
E|---------------------------------|

I am ready for you to take me higher

e|----------------------------------|
B|--6-------------------------------|
G|-----3h5p3p0----------------------|
D|---------------------4/5~~--------|
A|--------------3--5---5/6~~~~------|
E|----------------------------------|

Eb                        Dm            Gm      F
The only thing that I can do is keep on praying


Chorus:            

  On   my   own    I just can't get it right

e|-----8--8/10~~~----------------------------------------|
B|-11----------------------------------------------------|
G|-----------------3-x-3-x-3-x-3-x-3-x-3-x-3-x-3-x-3-x-3-|
D|-------------------------------------------------------|
A|-------------------------------------------------------|
E|-------------------------------------------------------|

   It doesn't matter how hard I try
e|------------------------------------|
B|------------------------------------|
G|-3-x-3-x-3-x-3-x-3-x-3-x-3-x-3-x-3--|
D|------------------------------------|
A|------------------------------------|
E|------------------------------------|

   But   with      you     I've become a much stronger man

e|-------------------------------------------------------------------|
B|-------11~~---11/13~~~---------------------------------------------|
G|-/12---------------------3-x-3-x-3-x-3-x-3-x-3-x-3-x-3-x-0-x-0-x-0-|
D|-------------------------------------------------------------------|
A|-------------------------------------------------------------------|
E|-------------------------------------------------------------------|


  Getting on my knees puts me back on my feet again
                   
e|-------------------------------------------1-----|
B|-------------------------------------------3-----|
G|-0-x-0-x-3-x-3-x-3-x-3-x-3-x-3-x-3-x-------3-----|
D|-------------------------------------------3-----|
A|-------------------------------------------1-----|
E|-------------------------------------------------|

2nd Verse:

  Load is heavy Too much accumulation

e|------------------------------------------|
B|------------------------------------------|
G|-5/7--3/5~~~~----3/5-5~~--3---------------|
D|-----------------------------5~~~---------|
A|------------------------------------------|
E|------------------------------------------|

  These possessions that I have amount to nothing at all
e|----------------------------------|
B|----------------------------------|
G|----------------------------------|
D|----------------------------------|
A|--5--1/3-1~~~---1/3\1~~~---/6~~~--|
E|----------------------------------|

I am willing to hand over every one of them

e|------13--15~~~--------13---------------|
B|---15-------------15------13b(15)-------|
G|----------------------------------------|
D|----------------------------------------|
A|----------------------------------------|
E|----------------------------------------|

Cause they won't profit me anything in the end

e|-------------------------------------------|
B|-----------------------6-------------------|
G|--3-3-3-3----5h7-5h7------5/7\5p3h5p3p0----|
D|-------------------------------------------|
A|-------------------------------------------|
E|-------------------------------------------|

2nd Chorus: 

  On   my   own    I just can't get it right

e|-----8--8/10~~~----------------------------------------|
B|-11----------------------------------------------------|
G|-----------------3-x-3-x-3-x-3-x-3-x-3-x-3-x-3-x-3-x-3-|
D|-------------------------------------------------------|
A|-------------------------------------------------------|
E|-------------------------------------------------------|

   It doesn't matter how hard I try
e|------------------------------------|
B|------------------------------------|
G|-3-x-3-x-3-x-3-x-3-x-3-x-3-x-3-x-3--|
D|------------------------------------|
A|------------------------------------|
E|------------------------------------|

   But   with      you     I've become a much stronger man

e|-------------------------------------------------------------------|
B|-------11~~---11/13~~~---------------------------------------------|
G|-/12---------------------3-x-3-x-3-x-3-x-3-x-3-x-3-x-3-x-0-x-0-x-0-|
D|-------------------------------------------------------------------|
A|-------------------------------------------------------------------|
E|-------------------------------------------------------------------|

 
  Getting on my knees puts me back on my feet again
                   
e|------------------------------------------------1-----|
B|------------------------------------------------3-----|
G|-0-x-0-x-3-x-3-x-3-x-3-x-3-x-3-x-3-x------------3-----|
D|------------------------------------------------3-----|
A|------------------------------------------------1-----|
E|------------------------------------------------------|
   FILL
e|----------------------------6----------6------6----|
B|-13h15-13----13-13/15~~~------6--5~~-----6---------|
G|----------15-------------------------------7~~-----|
D|------------------------------------------------7--|
A|---------------------------------------------------|
E|---------------------------------------------------|



Solo: Eb Dm Gm   Gradual increase in tempo. Fill in the gaps.

e|------------------------------------------------------------------------|
B|------------------------------------------------------------------------|
G|--5/7--5~~~---5~~~---3-5b~~~--------------3---3-5-3h5b~~--3p2~~~--------|
D|-----------------------------5-5~~----3h5---5-------------------4/5\4~~-|
A|------------------------------------------------------------------------|
E|------------------------------------------------------------------------|

e|-------------------------------------------------------------------|
B|-------------------------------6h8p6h8p6h8p6h8p6h8p6h8p6h8p6-------|
G|---------2h3p2p0--5h7p5\3------------------------------------------|
D|-----4-5-----------------------------------------------------------|
A|-3-5---------------------------------------------------------------|
E|-------------------------------------------------------------------|


e|-------------------------------------------------------------------------|
B|---11p10h11h10h11p10h11p10h11p10h11p10----11/13~~~---11--13/15~~-13~~~-11|
G|-------------------------------------------------------------------------|
D|-------------------------------------------------------------------------|
A|-------------------------------------------------------------------------|
E|-------------------------------------------------------------------------|


e|---------10--11/13~~--10-11--10h11p10p8--10-10~~h11p10p8-----------------|
B|----8-11--------------------------------------------------13--15b--13~~--|
G|-------------------------------------------------------------------------|
D|-------------------------------------------------------------------------|
A|-------------------------------------------------------------------------|
E|-------------------------------------------------------------------------|

e|------------------10--13/15~~~---13-15-15/17~~~--15----13-15-15---18b----|
B|--11-13----11-13------------------------------------15----------------18b|
G|--------12---------------------------------------------------------------|
D|-------------------------------------------------------------------------|
A|-------------------------------------------------------------------------|
E|-------------------------------------------------------------------------|

e|--------------------------------------------------------------------|
B|--------18p15------------------------------------18-18-18-----------|
G|--------------17----17p15-----17~~-17~~---15h17--17-17-17--15~~~----|
D|-------------------------17-----------------------------------------|
A|--------------------------------------------------------------------|
E|--------------------------------------------------------------------|


minus the bridge.
sounds like it. hehehe



| /  slide up
| \  slide down
| h  hammer-on
| p  pull-off
| ~  vibrato
| +  harmonic
| x  Mute note
============================================================================
Suggest correction
Give kudos to tab author, rate the tab!
1 2 3 4 5
comments
print report bad tab
guest
You may want to rate the tab now too:
select rating
Please do not post tabs as comments. Select "correction" instead!