Oops, an error
Loading. Please wait.

Wander This World tab

version 1
version 1

Whole song

Interactive

9,305 views 1 this week
2 commentsread comments
1 2 3 4 5
x 3
add to favorites
×
Save as Personal and add changes to this tab that will be seen only by you. Learn more ›
×
You can save this tab as Personal to edit and correct it or add notes. All changes will be seen only by you. Learn more »
launch autoscroll
font size
0
reset
how to read this tab
guitar tuner
edit
Autoscroll
slow
fast
+/-
esc
set tempo
stop
Wander This World - Jonny Lang
Tabbed by his biggest fan

STANDARD TUNING
/ = SLIDE NOTES

E-----------------------------------------------------|
B--------------------5-----------5--------------------|
G--------5--------5-----5-----5-----5-----------------|
D-----7-----7--5-----------4-----------3--------------|
A--0--------------------------------------2/3/2/3--0--|
E-----------------------------------------------------|

E--------------------------------5--------------------|
B--------------------5--------------------------------|
G--------5--------5-----5-----5-----5-----------------|
D-----7-----7--5-----------4-----------3--------------|
A--0--------------------------------------2/3/2/3--0--|
E-----------------------------------------------------|


(DO BOTH RIFFS ONE AFTER EACH OTHER AND PLAY THROUGHOUT THE WHOLE SONG

            
            
Suggest correction
Creating personal tab
Creating personal tab
You can edit any tab online and save it as your Personal.

You can edit, replace or remove any tab part or add personal notes – all changes will be seen only by you.

Personal tabs can be accessed anytime from any device, even offline.
Learn more »
Give kudos to tab author, rate the tab!
1 2 3 4 5
comments
print report bad tab
2 comments total.
0 reply
Solidforce 178 Apr 15, 2006 07:54 AM

good intro..now the rest:)

0 reply
timvandervelden 17 Jan 07, 2017 02:51 PM

I would say that the last bit is

-----------------
----------1------
-------2-----2---
---3-------------
-----------------
-----------------

but that's just my ear haha.

guest
Wanna post a correction for this tab? Suggest correction