Oops, an error
Loading. Please wait.

At Home tab

by joos
70 views 1 this week
no commentswrite comment
1 2 3 4 5
3 more votes to show rating
add to favorites
×
Save as Personal and add changes to this tab that will be seen only by you. Learn more ›
×
You can save this tab as Personal to edit and correct it or add notes. All changes will be seen only by you. Learn more »
launch autoscroll
font size
0
reset
how to read this tab
guitar tuner
edit
Autoscroll
slow
fast
+/-
esc
set tempo
stop
Author
JOOS - At Home
From the EP "i don't like being alone" (2016).

https://joos-ca.bandcamp.com/album/i-dont-like-being-alone

Tabbed by Isaac Murguia, August 2016.
Originally uploaded to Ultimate-Guitar.com
Contact: www.youtube.com/user/Goadiroth

INTRO:
  Guitar 1
e|---------------------------------|
B|-7-----5-----5\--2-----0-----0---|
G|---6-6---6-6-------2-2---2-2---2-|
D|---------------------------------|
A|---------------------------------|
E|---------------------------------| x2

  Guitar 1
e|---------------------------------|---------------------------------|
B|-7-----5-----5\--2-----0-----0---|-7-----5-----5\--2-----0-----0---|
G|---6-6---6-6-------2-2---2-2---2-|---6-6---6-6-------2-2---2-2-----|
D|---------------------------------|---------------------------------|
A|---------------------------------|---------------------------------|
E|---------------------------------|---------------------------------|
  Guitar 2
e|---------------------------------------------|----------------------------------------|
B|---------------------------------------------|----------------------------------------|
G|---------------------------------------------|----------------------------------------|
D|-14-14-14-11-11-11-11-11--12-12-12-9-9-9-9-9-|-14-14-14-11-11-11-11-11--12-12-12-9-9--|
A|---------------------------------------------|----------------------------------------|
E|---------------------------------------------|----------------------------------------|

CHORUS:
  Guitar 1 = same as intro

  Guitar 2
e|----------------------------------------------|    |----------------------------------------|
B|----------------------------------------------|    |----------------------------------------|
G|----------------------------------------------|    |----------------------------------------|
D|----------------------------------------------|    |----------------------------------------|
A|-14-14-14-11-11-12-12-12--11-11-11-9-9-7-7-7/-|    |-14-14-14-11-11-12-12-12--11-11-11-9-9--|
E|----------------------------------------------| x3 |----------------------------------------|

VERSE:
  Guitar 1 (sounds like it's mainly just the e and B strings tho)
e|-2---------0----2----|-2----0----0----2----|
B|-2----2----2----2----|-2----2----2----2----|
G|-2----2----2----2----|-2----2----2----2----|
D|---------------------|---------------------|
A|---------------------|---------------------|
E|---------------------|---------------------|
  Guitar 2
e|--------------------------------------|
B|--------------------------------------|
G|--------------------------------------|
D|-14--11-12---16----14-12--11--9\7-7/9-|
A|--------------------------------------|
E|--------------------------------------| x2

Repeat CHORUS
Repeat VERSE

BRIDGE/VERSE VARIATION:
  Guitar 1
e|-----------------------------------|---------------------------|
B|-7-7-7-7-5-5-5-5--2-2-2-2-0-0-0-0--|-7-7-7-7-5-5-5-5--2-2-2-2--|
G|--6-6-6-6-6-6-6-6--2-2-2-2-2-2-2-2-|--6-6-6-6-6-6-6-6--2-2-2-2-|
D|-----------------------------------|---------------------------|
A|-----------------------------------|---------------------------|
E|-----------------------------------|---------------------------|
  Guitar 2
e|--------------------------------------------|
B|--------------------------------------------|
G|--------------------------------------------|
D|-16-16--14-14--12-12--11-11--9-9--7-7--9/11-|
A|--------------------------------------------|
E|--------------------------------------------| x2

Repeat CHORUS

End. Please rate! :D
Suggest correction
Creating personal tab
Creating personal tab
You can edit any tab online and save it as your Personal.

You can edit, replace or remove any tab part or add personal notes – all changes will be seen only by you.

Personal tabs can be accessed anytime from any device, even offline.
Learn more »
Give kudos to tab author, rate the tab!
1 2 3 4 5
comments
print report bad tab
guest
You may want to rate the tab now too:
select rating
Wanna post a correction for this tab? Suggest correction