Oops, an error
Loading. Please wait.
628 views 9 this week
1 commentread comment
1 2 3 4 5
x 3
add to favorites
×
Save as Personal and add changes to this tab that will be seen only by you. Learn more ›
×
You can save this tab as Personal to edit and correct it or add notes. All changes will be seen only by you. Learn more »
launch autoscroll
font size
0
reset
how to read this tab
guitar tuner
edit
Autoscroll
slow
fast
+/-
esc
set tempo
stop
[Intro]

e|2-2-2-2-2-2--2-2-2-2-2-2--2-2-2-2-2-2--2-2-2-2-2-2-------------------------------------------------|
B|2-2-2-2-2-2--2-2-2-2-2-2--2-2-2-2-2-2--2-2-2-2-2-2-------------------------------------------------|
G|2-2-2-2-2-2--2-2-2-2-2-2--2-2-2-2-2-2--2-2-2-2-2-2-------------------------------------------------|
D|4-4-4-4-4-4--6-6-6-6-6-6--4-4-4-4-4-4--6-6-6-6-6-6-------------------------------------------------|
A|5-5-5-5-5-5--7-7-7-7-7-7--5-5-5-5-5-5--7-7-7-7-7-7-------------------------------------------------|
E|5-5-5-5-5-5--7-7-7-7-7-7--5-5-5-5-5-5--7-7-7-7-7-7-------------------------------------------------|

Simply play the chords very slowly during the chorus and hitting only E A and D. It's very simple.

            
            
Suggest correction
Creating personal tab
Creating personal tab
You can edit any tab online and save it as your Personal.

You can edit, replace or remove any tab part or add personal notes – all changes will be seen only by you.

Personal tabs can be accessed anytime from any device, even offline.
Learn more »
Give kudos to tab author, rate the tab!
1 2 3 4 5
comments
print report bad tab
1 comment total.
+1 reply
rabbitfink00 44 Mar 10, 2017 11:22 AM

this is correct, but you should probably add a note in there mentioning that it's not relevant to the capo, or change it to

e|2-2-2-2-2-2--2-2-2-2-2-2--2-2-2-2-2-2--2-2-2-2-2-2|
B|2-2-2-2-2-2--2-2-2-2-2-2--2-2-2-2-2-2--2-2-2-2-2-2|
G|2-2-2-2-2-2--2-2-2-2-2-2--2-2-2-2-2-2--2-2-2-2-2-2|
D|2-2-2-2-2-2--4-4-4-4-4-4--2-2-2-2-2-2--4-4-4-4-4-4|
A|3-3-3-3-3-3--5-5-5-5-5-5--3-3-3-3-3-3--5-5-5-5-5-5|
E|3-3-3-3-3-3--5-5-5-5-5-5--3-3-3-3-3-3--5-5-5-5-5-5|

guest
You may want to rate the tab now too:
select rating
Wanna post a correction for this tab? Suggest correction