Oops, an error
Loading. Please wait.

Desesperadamente Enamorado Tab

by Jordi
28 views 1 this week
no commentswrite comment
1 2 3 4 5
3 more votes to show rating
add to favorites
launch autoscroll
font size
0
reset
how to read this tab
guitar tuner
×
Best way to learn
"Desesperadamente Enamorado"
Autoscroll
slow
fast
+/-
esc
set tempo
stop
Intro    C   G/B    Am   F     C  G/B  Am  G

C           G/B                 Am
 Jamás imaginé, que yo pudiera ser,
      /G                 F
un suicida saltando sin red,
              Dm                  G
hacia tu corazón, colgado del balcón,
         C         G       C
de tus ojos de azúcar y miel.


La cosa es que por ti, amiga descubrí,
lo mejor que he vivido hasta hoy,
poder amarte así, necesitarte así,
        C                    G
es tan loco mi amor pero estoy.

CORO
           C           G/B    Am  /G      F
Desesperadamente enamorado, loco por tu amor,
   C/E            Dm        C/E      F       Bb
pendiente de tu mirada tu voz en el contestador.
    G       C            G/B     Am  /G      D/F#
Desesperadamente, enamorado, loco por tu amor,
 C                  F
tómame en cuenta, más de la cuenta,
Dm                 G
voy decidido a robarte el, corazón.

Inter   C   F   Dm   G  C


Había entre los dos, miradas que se yo,
una luz una clara señal,
sutil provocación, mediando entre tu y yo,
con un aire de complicidad.

De pronto en un rincón, me dije es la ocasión,
esta vez no podrás escapar,
que gran desilusión, fue una equivocación,
me atrapaste y estoy sin dudar.


CORO

   F                  G           F
...voy decidido a robarte el, corazón.

PUENTE
F
Salgo a la calle, pienso en ti,
              C/E
no como ni duermo, pienso en ti,
           G                     F
no me concentro en mis libros estoy distraído,
     G#
me pasa por vivir así.


CORO en C#  (2)
           C#         G#/C    Bbm  /G#      F#
Desesperadamente enamorado, loco por tu amor,
   C#/F            D#m    C#/F       F#     B
pendiente de tu mirada tu voz en el contestador.
   G#        C#           G#/C    Bbm  /G#      D#
Desesperadamente, enamorado, loco por tu amor,
 C#                D#m
tómame en cuenta, más de la cuenta,
F#                 G#         C#     G#
voy decidido a robarte el, corazón.


   F#                G#           F#   C#
...voy decidido a robarte el, corazón.

Intro     Riff 1  Riff 2

Riff 1
                 C   G/B    Am                F
e----------8-10-12--10--15-12-----------8-10----12--------
B---8-8-10---------------------8-8-8-10------10----8-10---
G---------------------------------------------------------
D---------------------------------------------------------
A---------------------------------------------------------
E---------------------------------------------------------

Riff 2
                 C   G/B    Am          G
e----------8-10-12--10--15-12-----------8---10--15----10--15---
B---8-8-10---------------------8-8-8-10-------------8----------
G--------------------------------------------------------------
D--------------------------------------------------------------
A--------------------------------------------------------------
E--------------------------------------------------------------


Inter  (1:26)

 C                F                        Dm         G          C
e----------8--10-----12----------------8-10----10-----------8-10-8-
B-8-8-8-10-------10-----8-10--8-8-8-10-----10-----10--8----8-------
G--------------------------------------------------------10--------
D------------------------------------------------------------------
A------------------------------------------------------------------
E------------------------------------------------------------------
Suggest correction
Give kudos to tab author, rate the tab!
1 2 3 4 5
comments
print report bad tab
guest
You may want to rate the tab now too:
select rating
Wanna post a correction for this tab? Suggest correction