Oops, an error
Loading. Please wait.

Carmelina Tab

34 views 1 this week
no commentswrite comment
1 2 3 4 5
3 more votes to show rating
add to favorites
launch autoscroll
font size
0
reset
how to read this tab
guitar tuner
×
Best way to learn
"Carmelina"
Autoscroll
slow
fast
+/-
esc
set tempo
stop
      INTRO 
      ~~~~~ 

e--||--------------8--------|--------------8--------|
B--||---------8---------8---|----6----8---------8---|
G--||----10---9--9----9---9-|--5---5--9--9----9---9-|
D--||--10-------------------|-----------------------|
A--||8--------7-------------|5----------------------|
E--||-----------------------|---------8-------------|

e--||6p5--------------------|-----------------------|
B--||---6---------------6-7-|---3--/6--6--5--3--1---|
G--||-----5----5------5-----|--3---/5--5--5--3--2---|
D--||-------5h7-----5-------|-3---------------------|
A--||-------------5---------|1----------------------|
E--||6------6--5------------|-----------------------|


      VERSOS
      ~~~~~~

B--||---------8---------8---|----6----8---------8---|
G--||----10---9--9----9---9-|--5---5--9--9----9---9-|
D--||--10-------------------|-----------------------|
A--||8--------7-------------|5----------------------|
E--||-----------------------|---------8-------------|

e--||6p5--------------------|-----------------------|
B--||---6---------------6-7-|---3--/6--5--6--7------|
G--||-----5----5------5-----|--3---/5--5--5--5------|
D--||-------5h7-----5-------|-3---------------------|
A--||-------------5---------|1----------------------|
E--||6------6--5------------|-----------------------|


e--||-------------8---------|--------------8--------|
B--||--------8--------8-----|-----6---8--------8----|
G--||--------9--------------|5--------9-------------|
D--||---10------------------|-----------------------|
A--||8-------7--------------|5----------------------|
E--||-----------------------|---------8-------------|

e--||-----------------------|-----------------------|
B--||----6------------------|-----6---8----5--------|
G--||5-------5--------------|3-------------5--------|
D--||-----------------------|-----------------------|
A--||-----------------------|-----------------------|
E--||6-------5--------------|3--------8-------------|


e--||-----------------------|-----------------------|
B--||--------8----8--8--8---|-6-------8---8--8--8---|
G--||--------9----6--6--6---|----5----9---6--6--6---|
D--||---10------------------|-----------------------|
A--||8-------7--------------|5----------------------|
E--||-----------------------|---------8-------------|

e--||6p5--------------------|-----------------------|
B--||---6------------6------|------6----5--6--7-----|
G--||-----5----5-------5----|----5------5--5--5-----|
D--||-------5h7-------------|--5--------------------|
A--||-----------------------|-----------------------|
E--||6------6--5---5--------|8----------------------|


       PUENTE
       ~~~~~~

e--||-----------------------|-----------------------|
B--||-----------------------|-----------------------|
G--||-------10------10------|-------10------10------|
D--||---10-----10------10---|---10-----10------10---|
A--||8----------------------|7----------------------|
E--||-----------------------|-----------------------|


e--||-----------------------|-----------------------|
B--||-----------------------|-----------------------|
G--||-------10------10------|-------10------10------|
D--||---10-----10------10---|---10-----10------10---|
A--||-----------------------|-----------------------|
E--||10---------------------|8----------------------|


            CORO/RASGUEO
            ~~~~~~~~~~~~

     F5    E/C              Dm7     E/C              
e--||-----------------------|-5---------------------|
B--||--------8--------------|-6-------8-------------|
G--||-10-----9--------------|-5-------9-------------|
D--||-10-----10-------------|-7-------10------------|
A--||-8------7--------------|-5-------7-------------|
E--||-----------------------|-----------------------|


     Bb      F                Bb      C              
e--||-6-------5-------------|--6-------8------------|
B--||-6-------6-------------|--6-------8------------|
G--||-7-------5-------------|--7-------9------------|
D--||-8-------7-------------|--8-------10-----------|
A--||-8-------8-------------|--8-------10-----------|
E--||-6---------------------|--6-------8------------|
Suggest correction
Give kudos to tab author, rate the tab!
1 2 3 4 5
comments
print report bad tab
guest
You may want to rate the tab now too:
select rating
Wanna post a correction for this tab? Suggest correction