Oops, an error
Loading. Please wait.

12 Segundos De Oscuridad Tab

99 views 1 this week
no commentswrite comment
1 2 3 4 5
3 more votes to show rating
add to favorites
launch autoscroll
font size
0
reset
how to read this tab
guitar tuner
Autoscroll
slow
fast
+/-
esc
set tempo
stop
Help us to improve Ultimate-Guitar.com Take our survey!
×
Hola a todos, esta es la primera vez que subo
una tablatura, pero espero que os guste a todos.
Esta es una de mis canciones favoritas de Jorge,
y de oídas creo que he sacado los acordes,
aunque es posible que me haya equivocado en alguna posición.

La canción consta de cinco arpegios que se van alternando
en cada verso, abajo os dejo la tablatura de cada uno de ellos.
Espero que os guste. SALUDOS

***OJO!!!! LOS ACORDES SE ARPEGIAN CON UN CAPODRASTRO EN EL TERCER TRASTE

(Arp 1)
Gira el haz de luz
            (Arp2)
para que se vea desde alta mar.
(Arp 3)
Yo buscaba el rumbo de regreso
       (Arp 2)
sin quererlo encontrar.

(Arp 1)
Pie detrás de pie
            (Arp 2)
iba tras el pulso de claridad
(Arp 3)
la noche cerrada, apenas se abría,
      (Arp 2)
se volvía a cerrar.

(Arp 1)              (Arp 2)
Un faro quieto nada sería
(Arp 3)              (Arp 2)
guía, mientras no deje de girar
(Arp 3)                (Arp 4)
no es la luz lo que importa en verdad
        (Arp 3) (Arp 5)      (Arp 2)
son los 12 segundos de oscuridad.
(Arp3)   (Arp 5)      Arp 1)
12 segundos de oscuridad.                   (Esta estructura es la que se
                                               se mantiene durante toda
                                                     la canción)
Para que se vea desde alta mar...
De poco le sirve al navegante
que no sepa esperar.


Pie detrás de pie
no hay otra manera de caminar
la noche del Cabo
revelada en un inmenso radar.

Un faro para, sólo de día,
guía, mientras no deje de girar
no es la luz lo que importa en verdad
son los 12 segundos de oscuridad
12 segundos de oscuridad
12 segundos de oscuridad.


Arpegio 1 (Arp 1)
||----------------------0-------------|
||--------------------------1------1--|
||-----------0-----------------0------|
||---------------4--------------------|
||-------3----------3-----------------|
||------------------------------------|

Arpegio 2 (Arp 2)
||----------------------0-------------|
||--------------------------1------1--|
||-----------0-----------------0------|
||---------------4--------------------|
||-------0----------0-----------------|
||------------------------------------|

Arpegio 3 (Arp 3)
||-------------------0----------------|
||-----------------------0------0-----|
||---------------------------0--------|
||-------3----------------------------|
||-----------3------------------------|
||---1----------1---------------------|

Arpegio 4 (Arp 4)
||-------------------0----------------|
||-----------------------0------0-----|
||------1--------------------1--------|
||----------2-------------------------|
||------------------------------------|
||---2---------2----------------------|

Arpegio 5 (Arp 5)
||-------------------0----------------|
||-----------------------0------0-----|
||---------------------------0--------|
||-------3----------------------------|
||-----------3------------------------|
||---3----------3---------------------|
Suggest correction
Give kudos to tab author, rate the tab!
1 2 3 4 5
comments
print report bad tab
guest
You may want to rate the tab now too:
select rating
Wanna post a correction for this tab? Suggest correction