Oops, an error
Loading. Please wait.

Alto Al Fuego Tab

86 views 1 this week
no commentswrite comment
1 2 3 4 5
3 more votes to show rating
add to favorites
launch autoscroll
font size
0
reset
how to read this tab
guitar tuner
×
Best way to learn
"Alto Al Fuego"
Autoscroll
slow
fast
+/-
esc
set tempo
stop
Este és el arreglo que hace Drexler en      NOTA: He escrito solamente
los conciertos a guitarra sola.                   una parte de la letra
Está extraído de un archivo sonoro                ya que la música és la
(por cierto de muy mala calidad)del               misma para las demás
Youtube.                                          partes.
Puede parecer algo engorrosa ya que a
 Drexler suele hacer arreglos algo
trabajados y diferentes, pero os ayudará
escuchar el archivo sonoro antes
comentado.
La sexta cuerda hay que afinarla en RE.

¡Que la disfruteis!

Intro: x3


---------------------------------------------------------------------- E
----------------------------------0----------------------------------  B
---------------2--------------------------2-------------------------- G
--------4------------4---------------------------4------------------- D
----5----------------------------------------------------------------- A
0----------------------------------------------------------------------D


Mira, yo aquí me bajo yo dejo el tren
---------------------------------------
-0-----------------0-------------------
-2-----------------0---------------2---
-4-----------------2---------------4---
-5-----------------2---------------4---
-0-----------------2---------------4---

en esta estación, me asusta tu guerra
---------------------------------------
--------------0--------0---------------
--------------4--------6---------------
--------------5--------7---------------
--------------5--------7---------------
--------------5--------7---------------

menos,
---------------------------------------
--0------------------------------------
--2------------------------------------
--4------------------------------------
--5----5--4--5--6----------------------
---------------------------------------

que el alto el fuego en tu corazón
---------------------------------------------
-------0----------0------------0-------------
-------5----------4------------2----2--------
-4-----------------------------5-------4-----
----------6-----7--------5-----4----------5--
----------------------------------0----------

             me asusta tu guerra menos
-------------------------------------------------
-------------------------------------------------
-------------------4--------3----------2---------
-------------------5--------5------------4-------
-3--2--0-----------5--------5--------------3-----
------------------ 5--------5----0-----------4-3-

que el alto  el fuego en tu corazón
-------------------------------------------
--------2---------------------0------------
--------4----------0----------6------------
-3-----------------2----------5------------
-------------------2----------7------------
-----------3-------2----------7---0--------


---------------------------------------------------------------
---------------------------0-----------------------------------
---------------2-----------------2----------------------------
--------4------------4-----------------4----------4-----2-----0-
----5--------------------------------------5-5-----  4------2---
----------------------------------------------------------------


Mi zamba será sincera, será creo, para
-------------------------------------------
0-----------------0------------------------
6-----------------2-------6----------------
7-----------------4-------5----------------
7-----------------5-------7----------------
7-----------------0-------7----------------


bién, y no se?rá   por---que  quiera
-------------------------------------------
-0-------------3-----------2---------------
-2-------------4-----------4----2----------
-4----------3--------------3----4----------
-5-------4----------------------4----------
-0------------------3-----------4----------

Que estoy dejando escapar mi tren
-------------------------------------------
-------------0--------7--------------------
-------------0--------6--------5-------5---
-------------2--------5--------7-------4---
-------------2--------x--------7-------5---
-------------2--------7--------7-------0---


Y no será por que quiera
-------------------------------------------
----------------------------------------7--
--4--------3--------2----------2-2------7--
--5--------5--------4-------------------7--
--5--------5--------5----------------------
--5--------5--------0----------------------

Que estoy dejan--do marchar tu tren
-------------------------------------------
-------------------------------------------
-------------6----2-----6--------2---------
------------------------5--------4---------
-------------7----4-----7--------5---------
------------------------7--------0---------


----------------------------2--------------
--------------3----------------------------
-2-----------------------------------------
-A   R   M  Ó  N   I   C  O   S------------
-------------------------------------------
-------------------------------------------
Suggest correction
Give kudos to tab author, rate the tab!
1 2 3 4 5
comments
print report bad tab
guest
You may want to rate the tab now too:
select rating
Wanna post a correction for this tab? Suggest correction