Oops, an error
Loading. Please wait.

Alto El Fuego Tab

71 views 1 this week
no commentswrite comment
1 2 3 4 5
3 more votes to show rating
add to favorites
launch autoscroll
font size
0
reset
how to read this tab
guitar tuner
×
Best way to learn
"Alto El Fuego"
Autoscroll
slow
fast
+/-
esc
set tempo
stop
IMPORTANTE: LA 6ª CUERDA DEBE ESTAR AFINADA EN RE
=================================================


Esta transcripción se ha realizado entre JOSÉ RAMÓN NAVARRO
(en su mayor parte) y yo.
También decir que es el arreglo que DREXLER hace cuando la
interpreta en directo.


Intro: x2

E |-------------------------|-
B |----------------0--------|-
G |----------2--------2-----|-
D |-------4-----4--------4--|-
A |----5--------------------|-
D |-0-----------------------|-


E |----------------|--0-----------|--0--------------|--0-----------------|-
B |-0--------------|--0-----------|--0--------------|--0-----------------|-
G |-2--------------|--0-----------|--2--------------|--4-----------------|-
D |-4--------------|--2-----------|--4--------------|--5-----------------|-
A |-5--------------|--2-----------|--4--------------|--5-----------------|-
D |-0--------------|--2-----------|--4--------------|--5-----------------|-
   Mira, yo aquí me bajo, yo dejo el tren en esta estación


E |----0-----------------|--------------------------|--------------------|-
B |----0-----------------|--0-----------------0-----|-----0-----0--------|-
G |----6-----------------|--2-----------------5-----|-----4-----2--------|-
D |----7-----------------|--4--------------4--------|-----5-----5--------|-
A |----7-----------------|--5--5--4--5--6--------6--|--7-----5--4--------|-
D |----7-----------------|--0-----------------------|-----------------5--|-
   Me asusta tu guerra menos             que el alto el fuego en tu cora-


E |----------------------|-----------------|-----------------------------|-
B |----------------------|-----------------|-----------------------2-----|-
G |----2-----------------|--4--------3-----|-----2-----------------4-----|-
D |-------4--------------|--5--------5-----|--------4-----------3--------|-
A |----------5--3--2--0--|--5--------5-----|-----------3-----------------|-
D |-0--------------------|--5--------5-----|--0-----------4--3--------3--|-
   zón               Me asusta tu guerra menos             que el alto el


E |----------------------|-----------------------------------------------|-
B |-------------0--------|-----------------0-----------------------------|-
G |-0-----------6--------|-----------2--------2--------------------------|-
D |-2-----------5--------|--------4-----4--------4--------4-----2-----0--|-
A |-2-----------7--------|-----5--------------------5--5-----4-----2-----|-
D |-2-----------7--------|--0--------------------------------------------|-
   fuego  en   tu    corazón


E |----0-----------|-----------------|-----------------|-----------------|-
B |----0-----------|--0--------------|-----------------|--0--------------|-
G |----6-----------|--2--------------|--6--------------|--2--------------|-
D |----7-----------|--4--------------|--5--------------|--4--------------|-
A |----7-----------|--5--------------|--7--------------|--5--------------|-
D |----7-----------|--0--------------|--7--------------|--0--------------|-
   Mi zamba  será sincera,           será,  creo,  para bien,


E |----------------|--------------------|--0-----------------------------|-
B |-------3--------|-----------2--------|--0--------8--7-----------------|-
G |-------4--------|--2--------4--------|--0--------6--6-----5-----5-----|-
D |----3-----------|--4--------3--------|--2--------5--5-----7-----4-----|-
A |-4--------------|--4-----------------|--2-----------------7-----5-----|-
D |----------------|--4--------3--------|--2--------7--7-----7-----0-----|-
   Y no será porque quiera, que estoy dejando marchar  tu tren


E |----------------|--------------------|-----------------------------2--|-
B |----------------|--------------------|--------------------------3-----|-
G |-4--------3-----|--2-----------11----|--6-----2--0-----------2--------|-
D |-5--------5-----|--4-----------------|--------------------------------|-
A |-5--------5-----|--5--5--5-/12-------|--7-----4--2--------5-----------|-
D |-5--------5-----|--0-----------------|-----------------0--------------|-
   Y no será porque quiera, que estoy dejando marchar tu tren
Suggest correction
Give kudos to tab author, rate the tab!
1 2 3 4 5
comments
print report bad tab
guest
You may want to rate the tab now too:
select rating
Wanna post a correction for this tab? Suggest correction