Oops, an error
Loading. Please wait.

Cara B Tab

122 views 1 this week
no commentswrite comment
1 2 3 4 5
3 more votes to show rating
add to favorites
launch autoscroll
font size
0
reset
how to read this tab
guitar tuner
Autoscroll
slow
fast
+/-
esc
set tempo
stop
Help us to improve Ultimate-Guitar.com Take our survey!
×
Con la excepción del principio, basé casi completamente
mi transcripción en este video de YouTube:

Espero que se entienda la mezcla de acordes y
tablaturas que hice.

    D6   Ddim Fdim G#dim  Bdim
E||--2----1----4----7---------||
B||--0----0----3----6------3--||
G||--2----1----4----7------4--||
D||--0----0----3----6------3--||
A||------------------------2--||
E||---------------------------||


D6                          (Punto A)
Si cuando vuelves a casa
          Fdim Bdim Fdim Bdim
me ves sombrío,
D6
dándole vueltas al vals
del desconsuelo,
E||----------------------||
B||--6----5----4----3----||
G||--5----5----4----4----||
D||--4----4----3----3----||
A||------------4----4----||
E||--4----4--------------|| (Punto B)

F#7
ten compasión

E||----------------||
B||------2----1----||
G||------2----2----||
D||------1----1----||
A||------2----2----||
E||----------------||
de esta falta de luz
        Em7
hoy soy una moneda

E||---------------||
B||--7-------6----||
G||--6-------6----||
D||--5-------5----||
A||---------------||
E||--5-------5----||    D6
que tiene dos lados de cruz.

(Tocar desde el punto A)
Y si me notas lejos
estando a tu lado,
como una réplica mala
de lo que yo era,
tómate en broma mi salto mortal,
hoy soy sólo una copia y tu tienes el original.

(Tocar desde el Punto B)
No le hagas caso
a tanto misterio,
vos ya sabés la verdad ;
que no hay nada peor para esta seriedad
que tomársela en serio.

(Tocar desde el Punto B)
Deja que hable
tu cercanía,
vos conocés la razón,
y no hay nada peor para este corazón
que una casa vacía.

(Tocar desde el Punto B)
Deja pasar
esta falta de fe,
este disco rayado que hoy
tiene sólo
cara B.
Suggest correction
Give kudos to tab author, rate the tab!
1 2 3 4 5
comments
print report bad tab
guest
You may want to rate the tab now too:
select rating
Wanna post a correction for this tab? Suggest correction