Oops, an error
Loading. Please wait.

Frontera Tab

94 views 1 this week
no commentswrite comment
1 2 3 4 5
3 more votes to show rating
add to favorites
×
Save as Personal and add changes to this tab that will be seen only by you. Learn more ›
×
You can save this tab as Personal to edit and correct it or add notes. All changes will be seen only by you. Learn more »
save as personal
new!
launch autoscroll
font size
0
reset
how to read this tab
guitar tuner
Autoscroll
slow
fast
+/-
esc
set tempo
stop
Afinación con el bordón en RE.

Intro:


E -----------------------------------------------------------------------
B -----------------------------------------------------------------------
G -----------------------------------------------------------------------
D --0h2--0-----5---0h2---0---4----0h2--0----4---0h2--0---5---0h2--0-----5
A -----------------------------------------------------------------------
D --0h2-----5------0h2-------4----0h2----4------0h2------5---0h2-----5---

E ----------------------------
B ----------------------------
G ----------------------------
D -0h2---2---4---2---0---4---5
A ----------------------------
D -0h2-------4---2---0---4---5

E -----------------------------------------------------------------------
B -----------------------------------------------------------------------
G -----------------------------------------------------------------------
D --0h2--0-----5---0h2---0---4----0h2--0----4---0h2--0---5---0h2--0-----5
A -----------------------------------------------------------------------
D --0h2-----5------0h2-------4----0h2----4------0h2------5---0h2-----5---

E --------------------------------
B --------------------------------
G --------------------------------
D -0h2---2------------------------
A -----------5----3----2----0-----
D -0h2--------------------------5-

A LA HORA DE CONSTRUIR LOS ACORDES ACORDAOS DE QUE EL BORDÓN ESTÁ
AFINADO EN RE AL FINAL DE LA CANCIÓN DEJO LA POSICIÓN DE LOS ACORDES.

G                  D                         G
Yo no se de donde soy, mi casa está en la frontera, (bis)
( segunda vez quebrada entre ( D C B A G ))

G                     D               G
Y las fronteras se mueven como las banderas. (bis)

G                     D                       G
Mi patria es un rinconcito del canto de una cigarra. (bis)
( segunda vez quebrada entre ( D C B A G ))

G                     D                       G
Los dos primeros acordes que yo supe en la guitarra. (bis)

G                     F                     Em
Soy hijo de un forastero y de una estrella del alba,

                   Am7
Y si hay amor me dijeron,

Cm                 D7
Si hay amor me dijeron, toda distancia se salva.

G          D    G
Oooooo oooooo      [x2]

G                     D                         G
No tengo muchas verdades, prefiero no dar consejos. (bis)
( segunda vez quebrada entre ( D C B A G ))

G                     D                         G
Cada cual por su camino, que igual va a aprender de viejo. (bis)

G                     D                       G
El mundo está como está, por causa de las certezas. (bis)

G               D                   G
La guerra y la vanidad comen en la misma mesa,

G               D      C  B  A      G
La guerra y la vanidad en la misma mesa.

G                      F                      Em
Soy hijo de un desterrado y de una flor de la tierra,

                    Am7
Y de chico me enseñaron,

Cm                 D7
Las pocas cosas que se, del amor y de la guerra.

G        D       G
Oooooo oooooo (x4)


Solo: Intro.

G                      F                      Em
Soy hijo de un forastero y de una estrella del alba,

                    Am7
Y si hay amor me dijeron,

Cm                 D7
Si hay amor me dijeron, toda distancia se salva.

G         D                G
Ooooo ooooo, mi casa está en la fontera. (x4)

G         D                G
Yo no se de donde soy, mi casa está en la frontera.

G         D                G
Ooooo ooooo, mi casa está en la fontera.


G         D                G
Yo no se de donde soy, mi casa está en la frontera.


G         D                G
Ooooo ooooo, mi casa está en la fontera.

D:   000232
G:   5X5433
F:   3X3211
Em:  222000
Am7: X02010
Cm:  X35543
D7:  000212
Suggest correction
Give kudos to tab author, rate the tab!
1 2 3 4 5
comments
print report bad tab
guest
Wanna post a correction for this tab? Suggest correction