Oops, an error
Loading. Please wait.

Milonga Paraguaya Chords

version 1
version 1

Whole song

136 views 1 this week
no commentswrite comment
1 2 3 4 5
3 more votes to show rating
add to favorites
launch autoscroll
font size
0
reset
transpose
0
reset
simplify chords
display chords
guitar tuner
×
Best way to learn
"Milonga Paraguaya"
Autoscroll
slow
fast
+/-
esc
set tempo
stop
afinar la 6ta en RE

-----------------------
---0-0---4/5-----------
---0-----4/5-----------
---------4/5-5-4h5h4---
---------------------5-
-5-----0---------------   se repite varias veces

---------------------
---0-0---4/5-3-1---5-
---0-----4/5-4-2--5--
---------4/5-4-2-5---
---------------------
-5-----0-------------

intervalo

------------------
------0-----------
--------0---0---0-
---0------4---3---
------------------
-5----------------


Milonga paraguaya,
                   intervalo
prima lejana de Mangoré.

Am7        D9     Bm7 Bb7/9
¿Que me estará queriendo decir
   Am7
la noche,
    D9    intervalo
que no lo sé?
C 2h3 Fam#/Do#     Bm7 Bb7/9
¿Que me estará queriendo decir
Am7
la noche,
D9        intro
que no lo sé?
Yo miro a mi guitarra,
busco en las grietas del corazón.
Como estaré de solo
que estoy hablándole a una canción.
Como estaré de solo
que estoy hablándole a una canción.
Pasa un segundo,
como pasa una página en blanco
que no estrené.
Paso la vida
buscando un verso
que nunca encontraré.
Paso la vida
buscando un verso
que nunca encontraré.
Cuando me quede solo
varado y lejos del mar, yo sé,
que aunque no tenga nada,
tendré a esta copla esperándome.
Que aunque no tenga nada,
tendré a esta copla esperándome.

Abre tus brazos
y suéltate el pelo
que vengo buscándote,
milonga paraguaya
prima lejana de Mangoré.
Suggest correction
Give kudos to tab author, rate the tab!
1 2 3 4 5
comments
print report bad tab
guest
You may want to rate the tab now too:
select rating
Wanna post a correction for this tab? Suggest correction