Oops, an error
Loading. Please wait.

Salvapantallas Tab

254 views 1 this week
no commentswrite comment
1 2 3 4 5
3 more votes to show rating
add to favorites
launch autoscroll
font size
0
reset
how to read this tab
guitar tuner
×
Best way to learn
"Salvapantallas"
Autoscroll
slow
fast
+/-
esc
set tempo
stop
Tener en cuenta que los primeros 3 compases se repiten 5 veces.
Y en sí la canción es muy fácil,
se trata simplemente de arpegiar
3 acordes básicos (B, C#m y E),
que constituyen el núcleo de la
armonía de la canción.
Para colocar la mano izquierda en la
guitarra pueden servir estas posiciones de acordes.
                                    Cuerdas      EADGBe
B5/F# (Primeros dos compáses)            22440+
C#m7/F# (tercer compás)                  24240+
E9 (sin tercera)(compáses 4 y 5)      04240+
Los compáses 6 y 7 son los
más difíciles de ejecutar ya
que hay que mover más la mano izquierda.


Afinación : E A D G B E       Tipo de compás: 4/4

 |       |       |       |        |       |       |       |
| -------------------------------|--------------------------------|
|º-0-----0-----0---0-----0-----0-|--0-----0-----0---0-----0-----0-|
|----4-----4---------4-----4-----|----4-----4---------4-----4-----|
|º-----4---------------4---------|------4---------------4---------|
|2---------------2---------------|2---------------2---------------|
| -----------2---------------2---|------------2---------------2---|

 |       |       |       |      x5|       |       |       |
|------------------------------- |--------------------------------|
|--0-----0-----0---0-----0-----0 |--0-----0-----0---0-----0-----0-|
|----4-----4---------4-----4----º|----4-----4---------4-----4-----|
|------2---------------2-------- |2---------------2---------------|
|4---------------4--------------º|------4---------------4---------|
|------------2---------------2-- |------------0---------------0---|

 |       |       |       |        |       |       |       |
|--------------------------------|--------------------------------|
|--0-----0-----0---0-----0-----0-|--0-----0-----0---0-----0-----0-|
|----4-----4---------4-----4-----|----3-----1---------3-----1-----|
|------------2---------------2---|2-----2-----4---2-----2-----4---|
|------4---------------4---------|--------------------------------|
|0---------------0---------------|--------------------------------|

 |       |       |       |        |       |       |       |
|--------------------------------|--------------------------------|
|--0-----0-----0---0-----0-----0-|--0-----0-----0---0-----0-----0-|
|----3-----1---------3-----1-----|----4-----4---------4-----4-----|
|2-----2-----4---2-----2-----4---|2---------------2---------------|
|--------------------------------|------4---------------4---------|
|--------------------------------|------------0---------------0---|

 |       |       |       |        |       |       |       |
|--------------------------------|------------------------------- |
|--0-----------------------------|--0-----0-----0---0-----0-----0 |
|----4---------------------------|----4-----4---------4-----4----º|
|--------2-----------------------|------4---------------4-------- |
|------4-------------------------|2---------------2--------------º|
|0-------------------------------|------------2---------------2-- |
Suggest correction
Give kudos to tab author, rate the tab!
1 2 3 4 5
comments
print report bad tab
guest
You may want to rate the tab now too:
select rating
Wanna post a correction for this tab? Suggest correction