Oops, an error
Loading. Please wait.

Amo Noite E Dia Tab

version 1
version 1

Whole song

1,300 views 6 this week
no commentswrite comment
1 2 3 4 5
please rate
add to favorites
launch autoscroll
font size
0
reset
how to read this tab
guitar tuner
Tab Pro tools
  • play this tab
  • loop segment
  • change instrument
  • show fretboard
  • metronome
×
Best way to learn
"Amo Noite E Dia"
Autoscroll
slow
fast
+/-
esc
set tempo
stop
Difficulty
novice
(intro)

(base) C#m A9 E B4

  C#m      A9       E        B4
E|-0---0---0---0----0---0----0---0----------|
B|-5-----5-0-----0--0---0-0--0-----0--------|
G|-6-6-----2-2------1-----1--4-4---4--------|
D|-6-6-----2-2------2-2------4-4------------|
A|-4-4-----o-0------2-2------2-2------------|
E|------------------0-0---------------------|

(solo)
(parte 1)
E|---0-----0-----0---0-----0----------------|
B|-5---5-5---5-5---5---5-5---5-5\0----------|
G|------------------------------------------|
D|------------------------------------------|
A|------------------------------------------|
E|------------------------------------------|

(parte 2)
E|---0-----0---------0-----0-------0-----0--|
B|-2---2-2---2-2/5-5---5-5---5-5/9---9-9----|
G|------------------------------------------|
D|------------------------------------------|
A|------------------------------------------|
E|------------------------------------------|

(parte 3)
E|---------0-----0--------------------------|
B|-9-9\7-7---7-7---7-7----------------------|
G|------------------------------------------|
D|------------------------------------------|
A|------------------------------------------|
E|------------------------------------------|

(primeira parte)

   C#m            A9
E|------------------------------------------|
B|---5-----5--------0-----0-----------------|
G|-----6-----6--------2-----2---------------|
D|------------------------------------------|   (3x)
A|-4-----4-----4--0-----0-----0-------------|
E|------------------------------------------|

   E5               B4
E|-----------0------------------------------|
B|---0-----0---0-----0-----0----------------|
G|-----4---------------4-----4--------------|
D|-2-----2----------------------------------|
A|-----------------2-----2------2/4---------|
E|------------------------------------------|

(*Repetir toda essa sequencia 2x, vamos tocar o final assim)

   A9      B4
E|-0---0------------------------------------|
B|-0-----0-0-0-0-0-0-0-0-0------------------|
G|-2-2-----4-4-4-4-4-4-4-4------------------|
D|-2-2-----4-4-4-4-4-4-4-4------------------|
A|-0-0-----2-2-2-2-2-2-2-2------------------|
E|------------------------------------------|

C#m                      A9
   Tem um pedaço do meu peito bem colado ao teu
C#m                        A9
   Alguma chave, algum segredo que me prende ao seu
C#m               A9                  E5
   Teu jeito perigoso de me conquistar
                  B4
Teu jeito tão gostoso de me abraçar
C#m                       A9
   Tudo se perde se transforma se ninguém te ve
C#m                         A9
   Eu busco as vezes nos detalhes encontrar voce
C#m                A9                    E5
   O tempo ja não passa só anda pra trás
                   B4                   A9 B4
Me perco nessa estrada não aguento mais

(refrão)
  Iê iê
C#m                     A9             E
  Passo o dia, passo a noite to apaixonado
                  B4                    C#m
Coração no peito sofre sem voce do lado
                  A9                E
Dessa vez tudo é real nada de fantasia
                    B4
Saiba que eu te amo,  amo noite e dia...

(* repete o solo da intro a partir da parte 2)

(*Depois dessa parte, a música repete as estrofes, com o ritmo diferente)

(solo)

(parte 1)
E|-7/9-9-9-9-9/12-12-12-12-12-12\7-7-7-7-7-7-7-7-7-7-|
B|---------------------------------------------------|
G|---------------------------------------------------|
D|---------------------------------------------------|
A|---------------------------------------------------|
E|---------------------------------------------------|

(parte 2)
E|-7/9-9-9-9-9/12-12-12-12-12-12\7-7-7-7-7-----------|
B|---------------------------------------------------|
G|---------------------------------------------------|
D|---------------------------------------------------|
A|---------------------------------------------------|
E|---------------------------------------------------|

(parte 3)
E|-7-5-4-5-4---4-------------------------------------|
B|-----------7---7-5-7-5-4---------------------------|
G|-------------------------6-------------------------|
D|---------------------------------------------------|
A|---------------------------------------------------|
E|---------------------------------------------------|
comments
We did not receive enough feedback on this tab! Please rate:
print report bad tab
1 2 3 4 5
I want to post or [tab]
guest
You may want to rate the tab now too:
select rating
Please do not post tabs as comments. Select "correction" instead!