Oops, an error
Loading. Please wait.

Cancion Del Pinar Tab

63 views 1 this week
no commentswrite comment
1 2 3 4 5
3 more votes to show rating
add to favorites
launch autoscroll
font size
0
reset
how to read this tab
guitar tuner
Autoscroll
slow
fast
+/-
esc
set tempo
stop
Help us to improve Ultimate-Guitar.com Take our survey!
×
|12/10-8-7-8/7-8----------8-----8-----|
|----------------8-8/10-8---8/7---7/6-|
|-------------------------------------|
|-------------------------------------|
|-------------------------------------|
|-------------------------------------|

|----------------------7/8------13/11-11/9-8-|
|----------7/8-6-8-9-6--------9--------------|
|-5-7-8-5------------------10----------------|
|--------------------------------------------|
|--------------------------------------------|
|--------------------------------------------|

|-------------------------|
|----12----10---8---6---3-|
|-12----10----7---5---4---|
|-------------------------|
|-------------------------|
|-------------------------|


DO SOL/SI SOL/SIb        FA7MAJ
QUIERO DEJAR TODAS LAS PALOMAS
       SOL        DO    SOL/SI
EN EL CEDRO DE TU ALMA
     LAm     LAm/SOL  REm7    SOL
Y TODO EL BESO EN TUS PIES
FA           SOL        DO   SOL/SI
QUE DEJES DE MIRARME BURLONA,
       LAm7    lam7/SOL  FAmaj7
SE QUE TE ESTOY DANDO POCO
SOL7           DO
Y MUCHO TE PEDIRE


SE LA NUBE SOLA EN MI PRADERA
SERE TU QUERIDO VERDE
Y SERAS SOMBRA EN MI MITAD
Y SI VES QUE MI VERDE SE QUEMA,
LLUEVE TU LLOROSA PENA
Y EL VERDE NUEVO SE HARA

ESTRIBILLO
DO  SOL/SISOL/SIb MI7  LAm
Y QUE NO TE VAYAS UN FEBRERO,
   LAm/SOL         RE/FA#
DETRAS DE AQUELLA BANDADA
   FAmaj7   SOL     DO
AZABACHE HACIA EL PINAR,
FA            SOL             DO      SOL/SI
QUIERO SER TAMBIEN DUENIO DEL CIELO
     LAm7   lam7/SOL
Y UN PINAR,
            FAmaj7       SOL        DO
PERO ES PRECISO QUE ME ENSENIES A VOLAR

HAZTE SOL CERCANO A LA DISTANCIA,
HAZTE EN MI RECUERDO UN LENIO
Y QUEMATE EN MI INTERIOR,
NO QUIERO TENER MAS NOCHES FRIAS,
NI PODER TAN SOLO EN SUENIOS
DESPERTARME JUNTO A VOS
QUE TENGAMOS ALREDEDOR NUESTRO
QUIEN BERREE NUESTROS NOMBRES
Y MUCHA SOMBRA POR DAR,
Y CUANDO VOLVAMOS A LA TIERRA
UNETE CONMIGO EN SAVIA
ASI HAREMOS SOMBRA IGUAL
ESTRIBILLO


Hermosa cancion de fander no?
Espero ke esté bien mi transcripcion del punteo y demas
Esta es mi primera colaboración 
Suggest correction
Give kudos to tab author, rate the tab!
1 2 3 4 5
comments
print report bad tab
guest
You may want to rate the tab now too:
select rating
Wanna post a correction for this tab? Suggest correction