Oops, an error
Loading. Please wait.

La Torcida Chords

46 views 1 this week
no commentswrite comment
1 2 3 4 5
3 more votes to show rating
add to favorites
launch autoscroll
font size
0
reset
transpose
0
reset
simplify chords
display chords
guitar tuner
Autoscroll
slow
fast
+/-
esc
set tempo
stop
Help us to improve Ultimate-Guitar.com Take our survey!
×
INTRO:
e|-------0------------0------0----------0-3-2-0---0-
B|------0------------0---3--------0-/-2---------3---
G|-----0------------5---------------------------3---
D|----2------------7-----0---2----0-/-2---0-0---2---
A|---2------------7----------2------------------3---
E|--0----0-2-3---5----------------------------------
    Em    G      A9          Em     A7         C9

e|-------0---------------|
B|-0-/-2---0-0-0-0-------|
G|-----------0-0-2--0----|
D|-0-/-2---------1--2----|
A|-----------2-2-2--2----|
E|-----------3-3----0----|
    A7       G   B7 Em

B7           Em
Me salió torcida,              [3/4]
            G
a ver quién va a bailarla,
A7             G          C
y en un giro de amor la sienta latir
G  A7          G     B7 Em    (6/8)
y le endulce la piel amarga.
Marca por la noche
su fatigosa huella,
ciega de soledad, un paso aquí abajo
y otro paso en las estrellas.
Lleva un corazón
desacompasado y duro
y el acento del lado más débil del aire
por donde cae lo maduro.
C
La torcida no es
      G          A7
tan difícil de cantar
  B7      Em        C      G   A7
bajo esta luz; más difícil es vivir
G   A7         G       B7  Em
de pie en esta tierra y andar.


En tanto no aclare
sobre esta tierra oscura
esta copla andará sangrando en el tiempo
con su torcida andadura.

Agua de la sombra
velada de mis días,
flor que endulza el salar, cruzando el desierto
va tu luna que me guía.

Canto y al robarla
del apagado espejo,
salta como una fiera mi vida astillada
con su quebrado reflejo.

La torcida es esta
voz que no tiene calma,
una canción que me va empujando el sol
en la oscuridad del alma.
Suggest correction
Give kudos to tab author, rate the tab!
1 2 3 4 5
comments
print report bad tab
guest
You may want to rate the tab now too:
select rating
Wanna post a correction for this tab? Suggest correction