Oops, an error
Loading. Please wait.

Concepcion Bass Tab

23 views 1 this week
no commentswrite comment
1 2 3 4 5
3 more votes to show rating
add to favorites
launch autoscroll
font size
0
reset
guitar tuner
×
Best way to learn
"Concepcion"
Autoscroll
slow
fast
+/-
esc
set tempo
stop
A1)No estare descontinuando........
1)----------------------------------------------------------
2)--------------------55---------------------------55-------
3)-------------55----3--3-32-77-------------55----3--3-32---
4)-320-770-723--3-32-------5--5--530-770-723--3-32-------5--

b1)Concepcion,octava region...........
1)--------------------------------------------------------------------------------------
2)--------------------------------------------------------------------------------------
3)--------------------------------------------------------------------------------------
4)-33-32--33--22-21-21-2-22-11-101-11-00000-0-2-33-32-33-22-21-2-22-11-101-11-1111111---

A2)El camino de salida..................
B1)Concepcion,octava region..............
b2)sid barred......
1)-------------------------
2)-------------------------
3)---77-7---55-5----77-7---
4)--5--5-5-3--3-3--5--5-5--
   se queda donde.......
1)------------------
2)------------------
3)----5----4--------
4)--33---22---11----

A3) me encontre .........
B2)sid barred............
Suggest correction
Give kudos to tab author, rate the tab!
1 2 3 4 5
comments
print report bad tab
guest
You may want to rate the tab now too:
select rating
Wanna post a correction for this tab? Suggest correction