Oops, an error
Loading. Please wait.

Por Amarte Bass Tab

23 views 1 this week
no commentswrite comment
1 2 3 4 5
3 more votes to show rating
add to favorites
launch autoscroll
font size
0
reset
guitar tuner
Autoscroll
slow
fast
+/-
esc
set tempo
stop
Help us to improve Ultimate-Guitar.com Take our survey!
×
La cancion empieza con el intro del teclado, el bajo empieza 
con:

0:08
G |-----------------------------------------------|
D |-----------------------------------------------|
A |---0-0--------0--------------------------------| 
E |--------3-3-----3----1-1--0-0---1-0------------| 

Esto es lo basico de la cancion

Y asi sigue toda hasta cuando dice:

'En las tormentas' 1:58 (hace un pequeño juego)
G |------------------------------------------------|
D |------------------------------------------------|
A |---0------------------------------2-1-----------| 
E |-----5--3-3---5-3----1-1--0-0---1-----0---------|

Despues en el coro toca 
'Por Amarte' 2:06
G |------------------------------------------------|
D |------------------------------------------------| (X4)
A |------------------------------------------------| 
E |---5-5--5-5--5-5--5-5--3-3--3-3--3-3--3-3-------| 

Despues sigue igual con el verso:
'Amarte es mi perdicion...' 2:24
Tambien puedes tocarlo de esta manera:
G |------------------------------------------------|
D |------------------------------------------------|
A |------------------------------------------------| 
E |---5-5--3-3---5-3----1-1--0-0---1-0-------------|

Luego el Coro

Ycuando dice: 
'Puse mi corazon' 3:32 
G |------------------------------------------------|
D |------------------------------------------------| 
A |------------------------------------------------| 
E |---5-5--5-5--5-5--5-5--5-5--5-5--5-5--5-5-------|

Hasta donde empieza a tocar el teclado:
3:49
G |------------------------------------------------|
D |------------------------------------------------| (X6)
A |------------------------------------------------| 
E |---5-5--3-3---5-3----1-1--0-0---1-0-------------|

G |------------------------------------------------|
D |------------------------------------------------|
A |------------------------------1-2---------------| 
E |---5-5--3-3---5-3----1-1--0-0-----1-0-----------|

G |------------------------------------------------|
D |------------------------------------------------|
A |------------------------------------------------| 
E |--4-5-55-3-3---5-3----1-1--0-0---1-0------------|

G |------------------------------------------------|
D |------------------------------------------------|(X2)
A |------------------------------------------------| 
E |---5-5--3-3---5-3----1-1--0-0---1-0-------------|

Luego cambia
4:10
G |------------------------------------|
D |------------------------------------| 
A |------------------------------------| 
E |---5--5-5--5-5-5--3--3-3--3-3-3-----| 

Hasta 4:48 (El bajo no toca)

Luego elcoro
'Por Amarte' 4:57
G |------------------------------------------------|
D |------------------------------------------------| 
A |------------------------------------------------| 
E |---5-5--5-5--5-5--5-5--3-3--3-3--3-3--3-3-------|
Suggest correction
Give kudos to tab author, rate the tab!
1 2 3 4 5
comments
print report bad tab
guest
You may want to rate the tab now too:
select rating
Wanna post a correction for this tab? Suggest correction