Oops, an error
Loading. Please wait.

Omnipotente Tab

130 views 3 this week
no commentswrite comment
1 2 3 4 5
3 more votes to show rating
add to favorites
×
Save as Personal and add changes to this tab that will be seen only by you. Learn more ›
×
You can save this tab as Personal to edit and correct it or add notes. All changes will be seen only by you. Learn more »
save as personal
new!
launch autoscroll
font size
0
reset
how to read this tab
guitar tuner
Autoscroll
slow
fast
+/-
esc
set tempo
stop
Intro:
E|----------------------------------------------------------------------
B|----------------------------------------------------------------------
G|----------------------------------------------------------------------
D|--------3-------------------------3-----------------------3-----------
A|--------------3-5-3-------------------0-3--3--3-1---------------3-5-3-
E|--3--3------5-------6-5-1---3--3--------------------3--3------5-------

E|--------------------------------|
B|--------------------------------|
G|--------------------------------|
D|--------------5---5-4-----------|
A|----------------------5-4-3-----|
E|6-5-1---3--3-------------6--|


Coro:
E|--------------------------------------------------8-------------------
B|--------------------------------------------------6-------------------
G|-----------------2-------3---3-3-3-----5---5-5-5--5-------------------
D|-------5---5-5-5-2-------3---3-3-3-----5---5-5-5-------------3--------
A|-------5---5-5-5-0--1-1--1---1-1-1-----3---3-3-3-------------------3-5
E|--3-3--3---3-3-3---------------------------------------3--3------5----

E|------------|
B|------------|
G|------------|
D|------------|
A|-3----------|
E|---6-5-1----|


Versos:
E|-----------------------------------------------------------------------
B|-----------------------------------------------------------------------
G|--5-------------------------------5----------3--3--3--3---------5------
D|--5-------------5-------3---3-5---5-------4s5--4--3--2--2p0-----5------
A|--3-------------5---3-5---5-------3-------------------------1---3------
E|-----------3-3---------------------------------------------------------


E|-------------------------------------------------------------|
B|-------------------------------------------6---6-6---6-------|
G|-------------------------------------------5---5-5---5-------|
D|------5-------3---3-5--------7---7-7-7-----------------------|
A|------5---3-5---5------------7---7-7-7-----------------------|
E|-3-3---------------------5-5-5---5-5-5-----------------------|


Solo De Guitarra:
E|---------------------------------14b15-14b15---10s12-12h14p12p10h12----
B|-----------------------------------------------------------------------
G|---------7-8--9--7---7-8--9--------------------------------------------
D|-7-8---------------9---------------------------------------------------
A|-5-6-------------------------------------------------------------------
E|-----------------------------------------------------------------------

E|-----------------------------------------------------------------------
B|-----------------------15b17--17-17-17b15--12-10-----------------------
G|-7-8--9--7---7-8--9------------------------------12------5-6--7--5---5-
D|-----------9-------------------------------------------------------7---
A|-----------------------------------------------------------------------
E|-----------------------------------------------------------------------

E|--------12b13-13b14---8s10---10h12p10p8h10-----------------------------
B|-----------------------------------------------------------------------
G|6--7----------------------------------5-6--7--5---5-6-7--------
D|--------------------------------------------------------7-5-6-7--------
A|-----------------------------------------------------------------------
E|-----------------------------------------------------------------------

E|------------------------------|
B|------------------------------|
G|------------------------------|
D|-7--8--7----------------------|
A|-5--6--5----3-5-6-5-3---------|
E|----------------------6-5-3---|

 (2:37) Con Efecto Tremolo.
E|---------------------------------------------------|
B|-------------6--8------------------------6--8------|
G|-3-----5-----5--7----------3-----5-------5--7------|
D|-3-----5-------------5-----3-----5-----------------|
A|---------------------5-----------------------------|
E|---------------------------------------------------|


  (3:05)
E|----------13--------------13----------------|
B|--3s13b15----15b13-11-12-----13b15-11-------|
G|--------------------------------------12----|
D|--------------------------------------------|
A|--------------------------------------------|
E|--------------------------------------------|

  (3:28) Final
E|----------------------------------------------------------------------
B|----------------------------------------------------------------------
G|------------------------------5-----------------------------------5---
D|------------------------------5-----------------------------------5---
A|--3---5-5---3-5---3-5---5-8---3---3---3---5-5---3-5---3-5---5-8---3---
E|--1---3-3---1-3---1-3---3-6-------1---1---3-3---1-3---1-3---3-6-------

E|-----------------------------------------|
B|-----------------------------------------|
G|-----------------------------------------|
D|------5-------7-8-7----------------------|
A|-3----5-------5-6-5---3-5-6-5-3-----5----|
E|-1----3-------------------------6-5-3----|
Suggest correction
Give kudos to tab author, rate the tab!
1 2 3 4 5
comments
print report bad tab
guest
Wanna post a correction for this tab? Suggest correction