Oops, an error
Loading. Please wait.
121 views 1 this week
no commentswrite comment
1 2 3 4 5
3 more votes to show rating
add to favorites
launch autoscroll
font size
0
reset
how to read this tab
guitar tuner
×
Best way to learn
"Chiquitita"
Autoscroll
slow
fast
+/-
esc
set tempo
stop
Hola a todos los q vean este post bueno aki va otra colaboracion
mia esta ves con el intro de chikitita ya q el solo es parecido
y me da un poco de flojera tambien ponerlo jajaja, bueno la mayor
parte la puse en la segunda cuerda para que se vea mas bacan al
tocarla espero por lo menos agradezcam!!!!
Dedicada para mi chikita linda VALERIA BRAVO
ECUADOR-MANABI-PORTOVIEJO!!!


E|-------------------------------------
A|--7----------------------------------
D|----6--------------------------------
G|------4-------------------------4^6-4
B|--------5--5^7--5-4-4-7-4-2-2-5------
e|-------------------------------------

Bueno hay se repite lo mismo y luego va esto

E|-----------------------------------------
A|-----------------------------------------
D|--12-------------------------------------
G|----11--------------------------5^6^5-6--
B|------10-12-10-9-9------7^9-5-7----------
e|--------9----------9-9-9----------------7

Hay una partesita al final que suena medio chistosabueno es super facil

B|-----------------------7-5-4-5-4-5-7-7^9-7-
e|-44444444-5555555-bis----------------------


Orgullosamente Portovejence!!!
Suggest correction
Give kudos to tab author, rate the tab!
1 2 3 4 5
comments
print report bad tab
guest
You may want to rate the tab now too:
select rating
Wanna post a correction for this tab? Suggest correction