Oops, an error
Loading. Please wait.

Quiero Ser Quien Soy Chords

14 views 1 this week
no commentswrite comment
1 2 3 4 5
3 more votes to show rating
add to favorites
launch autoscroll
font size
0
reset
transpose
0
reset
simplify chords
display chords
guitar tuner
Autoscroll
slow
fast
+/-
esc
set tempo
stop
Help us to improve Ultimate-Guitar.com Take our survey!
×
== Esta es una correción de la anterior tab, esta vez agregué ==
==================== el Solo de la canción =====================

.-Acordes Especiales-.
       EbGDAE
  Dsus:3320xx
  G7  :100023
  C*  :31023x

[Intro]
     G             F      C     G
e|----------------------------------------------3----|
B|---------------------------------------------------|
G|-2s4~~~--4p2-0-0h2~-4p2p0-------------0-2-2s4------|
D|----------------------------3s5---0s2--------------|

[Estrofa1]
G
  Quiero salir de esta prisión
          F - C        G
  Me hace daño al corazón
G
  Quiero sentir que el vivir
          F - C               G
  Se hace cada día fuerte en mí.

[Estrofa2]
             C                      G
  Quiero sentir que la luz siempre brilla
            C                 G
  Y que la vida puede ser distinta
                C                     G
  Quiero que el sol no se vaya de mi mente
            F  C                      G
  Y que al fin   me ilumine un día mejor

[Coro]
                      C
  Yo quiero ser quien soy
            D                         G   Dsus2 - D
  Aunque la vida para mí no sea tan justa
                Em                     C
  Yo quiero expresar lo que realmente pienso
         D                       G
  Y alcanzar miles de gentes con esto,
         G7
  Lo que pienso

                      C
  Yo quiero ser quien soy,
              D                            G    Dsus2 - D
  Aunque le duela a todo el mundo lo que pienso
          Em                       C
  Mi democracia me hace ser muy directo
            D        C
  Y esto es así, lo siento
  Solo digo lo que pienso

[Solo]
::Leyenda::
h  - Hammer up
p  - Pull-off
s  - slide
B  - Bend
r  - Bend release
~  - Vibrato

    Em              D             G                         D
e|------------------------------------------------10-7----------------|
B|------------7-7s8-7---------------8--10p8-10b12------10-8-10b12r10--|
G|-7s9~~----9--------------------------------------------------------9|
D|--------9-----------7~--5-7-5h7-9-----------------------------------|

                                           Em                     D
e|--------------------------------------------------------------------|
B|---------------10-12-------------------------8---------10-8-10s12~~|
G|-12-11-9h11h12-------12-11-9h11h12---------------8s9-11-------------|
D|-----------------------------------9-7-9-7s9------------------------|

                     G
e|-12-14-15-17-15-17b19-17b19---17b19r17-15-17-15-17s19~~~|
B|--------------------------------------------------------|
G|--------------------------------------------------------|
D|--------------------------------------------------------|

[Coro]
  Yo quiero ser quien soy
  Aunque la vida para mí no sea tan justa
  Yo quiero expresar lo que realmente pienso
  Y alcanzar miles de gentes con esto,
  Lo que pienso

  Yo quiero ser quien soy,
  Aunque le duela a todo el mundo lo que pienso
  Mi democracia me hace ser muy directo
                            G   C*
  Y esto es así, lo siento,  oh oh
       G       C*
  Lo siento, uh uh
                   G
  Solo digo lo que pienso.

**************************************************
Dudas, correcciones, comentarios a mi e-mail: chamopacc@
Última actualización: 16/08/2007
Suggest correction
Give kudos to tab author, rate the tab!
1 2 3 4 5
comments
print report bad tab
guest
You may want to rate the tab now too:
select rating
Wanna post a correction for this tab? Suggest correction