Oops, an error
Loading. Please wait.

Tiempo De Novios Chords

39 views 1 this week
no commentswrite comment
1 2 3 4 5
3 more votes to show rating
add to favorites
launch autoscroll
font size
0
reset
transpose
0
reset
display chords
guitar tuner
×
Best way to learn
"Tiempo De Novios"
Autoscroll
slow
fast
+/-
esc
set tempo
stop
    Bm5   GM5     DM5      AM5
1----x-------x---------x----------x----
2----x-------x---------x----------x----
3----4-------x---------7----------x----
4----4-------5---------7----------7----
5----2-------5---------5----------7----
6----x-------3---------x----------5----

GUITARRA ACUSTICA:

    Bm    G       D        A 
1----2-------3---------2----------0----
2----3-------3---------3----------2----
3----4-------4---------2----------2----
4----4-------5---------x----------2----
5----2-------5---------x----------x----
6----2-------3---------x----------x----


BAJO: IGUAL SOLO OÍDO PARA LOS TIEMPOS...
Y HAS PEQUEÑAS VARIACIONES AL CAMBIO DE ESTROFAS

g-------------------
D-------------------
a---2------5--------
E------3--------5---


INTRO
Bm  G  D  A

Bm          G
Cuando te aleja de mí
D                    A
Parece que me lleva el viento
Bm          G
Frágil tan solo
D                    A
Me dejaste a mi suerte solo

G                D
Y quisiera me recuerdes
A                        Bm
Pero no olvides que yo si te amaba

CORO

                G
Dime quien pierde más
      D
El que duda
       A       Bm
O el que todo lo perdona
                G
Dime quien pierde más
      D
El que piensa
      A       Bm
O el que todo lo abandona
      G       D
Y a mi me toco perder
       A
Ahora lo entiendo
      Bm            G
El que primero se enamora pierde
       D            A
El que primero se enamora pierde

SE REPITE LOS ACORDES DEL INICIO

Cuando te alejas de mí
Me doy cuenta que no soy de hierro
Tan lento y seguro
Sin ti no puedo estar seguro

Solo espero te vaya bien
Pero no olvides que yo sí te amaba

REPITES EL CORO UNA VEZ MÁS

AQUÍ VA EL SOLO AUN NO LO SACO
PERO LAS NOTAS SON LAS MISMAS

CUANDO TERMINA EL SOLO SUBES TODA LA CANCIÓN
MEDIO TONO O SI GUSTAS TE MANTIENES EN ESTE MISMO

MISMOS ACORDES O SUBIDOS MEDIO TONO

Ahora pretendes regresar a mi vida
No es justo es muy tarde amor
Ahora pretendes regresar amor

NOTAS DEL CORO

Dime quien pierde más
A que huye
O el que todo lo perdona
Y ahora quien pierde más
A que esconde
O el que por ti todo lo abandona

También te tocó perder
Ahora lo entiendes
El que traiciona un buen amor pierde más x3
Suggest correction
Give kudos to tab author, rate the tab!
1 2 3 4 5
comments
print report bad tab
guest
You may want to rate the tab now too:
select rating
Wanna post a correction for this tab? Suggest correction