Oops, an error
Loading. Please wait.

Al Borde Del Delirio Tab

29 views 1 this week
no commentswrite comment
1 2 3 4 5
3 more votes to show rating
add to favorites
×
Save as Personal and add changes to this tab that will be seen only by you. Learn more ›
×
You can save this tab as Personal to edit and correct it or add notes. All changes will be seen only by you. Learn more »
save as personal
new!
launch autoscroll
font size
0
reset
how to read this tab
guitar tuner
Autoscroll
slow
fast
+/-
esc
set tempo
stop
Acá les dejo la intro de esta fabulosa canción
esta muy fácil tmb les dejaré la tablatura en tabaltura obvio jaja
esta c la kiero dedicar a todos los rojeros aguat JR!!!!


E||---------------------|-----------------------|
B||--7--7--5--5--3--3---|--3--5--7--5/7--8--5---|
G||---------------------|-----------------------|
D||--9--9--6--6--4--4---|-----------------------|
A||---------------------|-----------------------|
E||---------------------|-----------------------|


E||--12--12--10--10--9--9/10---|--10--7/9--7-------|
B||----------------------------|-------------5/7---|
G||--12--12--11--11--9--9------|-------------------|
D||----------------------------|-------------------|
A||----------------------------|-------------------|
E||----------------------------|-------------------|


E||-------------------2---3--5--7--5--|----------------------2---2-0-----|
B||------------2-3--5-----------------|------2-3-----2-3--5----------3---|
G||-------2--4------------------------|--2-2/4-----2/4-------------------|
D||--2--4-----------------------------|----------------------------------|
A||-----------------------------------|----------------------------------|
E||-----------------------------------|----------------------------------|


Hola esta canción sta ufffffffff!!!! kn tokioooo!!!! jajajaja
la kiero dedicar en especial a una persona a mi exnovia
sta s la última canción k le dedico, t amaba Kitty hasta siempre!!!

"...Sueños de un amor vivimos los dos
      ya se han vuelto polvio dentro de corazón
        llevaré en mi pecho todo lo vivido
          aunque con olvido hayas pagado mi amor..."


              Bm               F#m
Tu amor no se va, se queda conmigo
            G               Bm
intento escapar y no lo consigo y he llorado tanto,
              G                                  A
no imaginas cuanto se quebró mi alma y perdí la calma
                G        F#7
tu amor sigue aquí dando vueltas en la casa

              Bm           F#m
Tu amor no se va y pasa la vida
            G                    Bm
quisiera pensar que habrá una salida para el sufrimiento
             G                                  A
y para el tormento de vivir contigo en mi pensamiento
                G      F#7
tu amor sigue aqui atrapado en los recuerdos

    Bm                                   F#m
Tu amor quedó conmigo porque no te dije adiós cuando partías
    G                           F#7
aun guardo aquél abrazo de despedida

   Bm                                    F#m
Tu amor será por siempre una sombra de dolor en mi camino
        G                             D
si no puedo convencerme que ya te has ido
      G                          F#7          Bm
tu ausencia me ha dejado aqui al borde del delirio

F#m G F#7 Bm

     F#7                    Bm
Te extraño tanto vida mía y siento que me desespero
     F#m                      G                       F#7
para aliviar esta agonía no alcanza con mirar al cielo

    Bm                                   F#m
Tu amor quedó conmigo porque no te dije adiós cuando partías
    G                           F#7
aun guardo aquél abrazo de despedida

   Bm                                    F#m
Tu amor será por siempre una sombra de dolor en mi camino
        G                             D
si no puedo convencerme que ya te has ido
      G                          F#7          Bm   F#7  Bm
tu ausencia me ha dejado aqui al borde del delirio...
Suggest correction
Give kudos to tab author, rate the tab!
1 2 3 4 5
comments
print report bad tab
guest
Wanna post a correction for this tab? Suggest correction