Oops, an error
Loading. Please wait.

De Esas Que Te Hacen Llorar Tab

379 views 3 this week
no commentswrite comment
1 2 3 4 5
3 more votes to show rating
add to favorites
launch autoscroll
font size
0
reset
how to read this tab
guitar tuner
Autoscroll
slow
fast
+/-
esc
set tempo
stop
INTRO: E7 A E7

  A            E7               A
e|---------9-|---------10----10-9----9-14-12----|
b|------10---|-12-9-12----12------10---------15-|
g|----9------|----------------------------------|
D|-11--------|----------------------------------|
A|-----------|----------------------------------|
E|-----------|----------------------------------|

   E7                A
e|------------------------------9-|
b|-14----14-12----12---------10---|
g|----14-------13----14----9------|
D|----------------------11--------|
A|--------------------------------|
E|--------------------------------|
   E7               A
e|---------10----10-9----9-14-12----|
b|-12-9-12----12------10---------15-|
g|----------------------------------|
D|----------------------------------|
A|----------------------------------|
E|----------------------------------|

   E7                    A
e|----12-12-12-------------|
b|-14----------15-14-12----|
g|----------------------14-|
D|-------------------------|
A|-------------------------|
E|-------------------------|


 A
Las cuerdas de la guitarra
A7               D
son buenas para templar,
                        Bm
las penas que se hacen coplas
                  E
buscando la eternidad..
               A
Cantame una chacarera
    E                 A*
de esas que te hacen llorar.


  A*    E7               A
e|-9-9-|-----------10-10--9----9-12-12-|
b|-----|--12-10-12----------12---------|
g|-----|-------------------------------|
D|-----|-------------------------------|
A|-----|-------------------------------|
E|-----|-------------------------------|

  E7              A
e|----12-10----10--9------9----|
b|--9-------12---------10---10-|
g|-------------------9---------|
D|-----------------------------|
A|-----------------------------|
E|-----------------------------|
   E7               A
e|---------10----12----------14-16-14-|
b|-12-9-12----12----14----14----------|
g|---------------------14-------------|
D|------------------------------------|
A|------------------------------------|
E|------------------------------------|

   E7                 A
e|-12----12-------12-----|
b|----14----15-12-----14-|
g|-----------------------|
D|-----------------------|
A|-----------------------|
E|-----------------------|


 A
Historias de amor y ausencias
A7               D
lastimaduras de sal,
                    Bm
no duelen como las otras,.
                   E
parece que duelen más.
                A
Cantame una chacarera
 E                    A
de esas que te hacen llorar.

   A*                E7          A
e|-----------5-9-5-|-7-4------------------0-|
b|-----5-5-5-------|-----7-5------------5---|
g|---6-------------|---------4-7--6---6-----|
D|-7---------------|----------------7-------|
A|-----------------|------------------------|
E|-----------------|------------------------|

  E7          A
e|--4----------------5-0-|
b|----5------------5-----|
g|------7-4-7--6-6-------|
D|-----------------------|
A|-----------------------|
E|-----------------------|

   E7              A
e|-4-0-7-0-4-0-7-0-5-0-9-0-5-0-9-0-|
b|---------------------------------|
g|---------------------------------|
D|---------------------------------|
A|---------------------------------|
E|---------------------------------|
   E7               A
e|-4-0-7-0---10-9-7-5-|
b|---------9----------|
g|--------------------|
D|--------------------|
A|--------------------|
E|--------------------|

Y se ensambla con la estrofa 3
escuchenla con mucha atencion.

   A+7/9  A   A7      D       Dm/F       E
e|-5-----|--2-3-2---2---|----------|--------|
b|-------|--------5---3-|-0-2-3----|-----5--|
g|-------|--------------|----------|-4-4----|
D|-------|--------------|----------|--------|
A|-------|--------------|----------|--------|
E|-------|--------------|----------|--------|
         A           E       A
e|-----------------|---------5/-|
b|-5-5-3-2-2---2-3-|-5-3-2---2/-|
g|-----------4-----|-------4----|
D|-----------------|------------|
A|-----------------|------------|
E|-----------------|------------|


A+7/9
Algunas de las heridas
    A    A7       D
no van a cerrar jamás,
                    Dm/F
Si no puedo darles cura
                 E
alivio le voy a dar.
                 A
Cantame una chacarera
E                     A
de esas que te hacen llorar.


ESTRIBILLO
Arreglo del estribillo (violin)

  A     A7      D              Bm
e|----|---------------2-0-2-|----2-0-2-|
b|----|-------------3-------|-3--------|
g|----|-----------2---------|----------|
D|----|---------0-----------|----------|
A|--2-|-4-0-2-4-------------|----------|
E|----|---------------------|----------|
         E                 A
e|-------0-4-2-4-|---4-5-7-5-5-7-|
b|-3-3-0---------|-5-------------|
g|---------------|---------------|
D|---------------|---------------|
A|---------------|---------------|
E|---------------|---------------|
   E      A
e|-4--5-7-5-|
b|----------|
g|----------|
D|----------|
A|----------|
E|----------|

A
Hermano cantor te pido
A7                D
si puede ser una más,
                   Bm
Tu voz es como un consuelo
                 E
para mitigar mi mal.
                 A
Cantame una chacarera
E                      A
de esas que te hacen llorar.


SEGUNDA PARTE IGUAL A LA PRIMERA.


A
Que tenga la melodía
 A7               D
nostalgias en su cantar,
                 Bm
dolor por haber perdido
                   E
lo que no se sabe amar.
                 A
Cantame una chacarera
E                      A
de esas que te hacen llorar


A
Amores que se marcharon
A7                   D
recuerdos que no se van,
                 Bm
A veces me pone triste
                       E
los besos que ya no están.
                A
Cantame una chacarera
E                      A
de esas que te hacen llorar


A+7/9
Qué mal me pagó el olvido
   A      A7      D
difícil será olvidar,
                       Dm/F
Hay cosas que en esta vida
                      E
se llevan hasta el final.
                 A
Cantame una chacarera
E                      A
de esas que te hacen llorar.


A
Hermano cantor te pido
A7                D
si puede ser una más,
                   Bm
Tu voz es como un consuelo
                 E
para mitigar mi mal.
                A
Cantame una chacarera
E                      A
de esas que te hacen llorar.


ACORDES
    A     A7    D    Bm     E     E7  A+7/9  Dm/F
e|--0--|--0--|--2--|--2--|--0--|--0--|--4--|--1--|
b|--2--|--2--|--3--|--3--|--0--|--0--|--2--|--3--|
g|--2--|--0--|--2--|--4--|--1--|--1--|--4--|--2--|
D|--2--|--2--|--0--|--4--|--2--|--0--|--2--|--3--|
A|--0--|--0--|-----|--2--|--2--|--2--|--0--|-----|
E|-----|-----|-----|-----|--0--|--0--|-----|-----|

NOTA:
El acrode A* significa que
los punteos del acordion o
violin caen en el tempo 1 o
caen despues de asentuar el A*
Suggest correction
Give kudos to tab author, rate the tab!
1 2 3 4 5
comments
print report bad tab
guest
You may want to rate the tab now too:
select rating
Wanna post a correction for this tab? Suggest correction