Oops, an error
Loading. Please wait.

En El Nombre Del Amor Tab

11 views 1 this week
no commentswrite comment
1 2 3 4 5
3 more votes to show rating
add to favorites
launch autoscroll
font size
0
reset
how to read this tab
guitar tuner
Autoscroll
slow
fast
+/-
esc
set tempo
stop
En nombre del amor. (Jorge Rojas).

Aqui les dejo esta hermosa canción.
Esta 100% correcta?. Escúchenla? espero que les guste?

Introducción:

Guitarra:  F# - Bm - F# - Bm - F# - Bm - F# - Bm

D)--------------4-4~2----------4--|
A)---2--4--5--------------4--5------|
E)----------------------------------|

D)-------------4-4~2-------------|
A)-2--4--5--------------4--5--2---|
E)--------------------------------|

D)--------------4-4~2-------------4--|
A)---2--4--5--------------5--4--5-----|
E)------------------------------------|

D)-4~2-------------4-4~2-----------------|
A)--------5--4--5--------------4--5--2---|
E)---------------------------------------|

Verso    1

    Bm           F#m
El viento vuela feliz
G              F#
Hacia la libertad
                    D
Y yo queriendo ser luz
     F#               Bm
Para    ponerme A LA par.
Introducción:

Guitarra:  F# - Bm - F# - Bm - F# - Bm - F# - Bm


E)-------------2-2~0---------2--|
B)--0--2--3-------------2--3-----|
G)----------------------------------|

E)-------------2-2~0------------------|
B)--0--2--3-------------2--3--0-------|
G)---------------------------------------|

E)-------------2-2~0-------------2-|
B)--0--2--3-------------3--2--3-------|
G)----------------------------------------|

E)-2~0-------------2-2~0---------------|
B)-------3--2--3--------------2--3--0----|
G)------------------------------------------|

Verso  2

   Bm        A
Retratos de la niñez
    G           F#
Me aprieta el Corazón
F#    A   D
Encandilado de ayer
  F#                   Bm
no alcanzo a mirar el sol.

Introducción:

Guitarra:  F# - Bm - F# - Bm - A - D - F# - Bm

E)-------------2-2~0---------2--|
B)--0--2--3-------------2--3-------|
G)------------------------------------ |

E)-----------2-2~0------------------|
B)---0--2--3-------------2--3--0----|
G)--------------------------------------|

E)-------------------------0--1--2-2~0---|
B)--0-----0--2--3--2--3-----------------------|
 G)-----3----------------------------------------|


E)-----------2---7--9--10--9--7--6--9--7----|
B)-3--2--3--------------------------------------|
G)-----------------------------------------------|


Verso    3

   Bm            F#m
Me duele el amanecer
  G        G#  A
Sangrando soledad
  F#                D - E - E# (bajada que hace el acordion).
No he de culpar al amor
  F#                      Bm
ni a ti    que no me ames mas.

Estribillo:

    Bm             A
La guerra no hace la paz
   G           F#
En nombre del amor
 F#   A    D
Pero hace falta vencer
 Em      F#          Bm
con tu carne   de cañon.

Puente:

Guitarra:   Bm - G - E7 - A - F# - Bm
                  ( improvisar sobre estos acordes).
                   F# - Bm - F# - Bm


Verso    4  (igual al 1)

Cobarde como el gemir
Del que debió llorar
La culpar de su traición
En nombre de la amistad.

Introducción:   (igual que la 1º)


Verso    5   (igual al 2)

Busque en el aura lunar
Inerte inspiración
Para animarme a sentir
boemia en el corazón.

Intermedio:

Guitarra:   F# - Bm - F# - Bm - A - D - F# - Bm

E)-------------------------------------------|
B)--777--7-7---------777--7-7-----------|
G)---------------9-------------------7-------|
 D)------------------9--------------------9-|

E)----------------------------7-9-10-7/19---|
B)-777--7-7--777--7-7-7-------------------|
G)-------------------------------------------|
D)------------------------------------------|

Verso    6   (gual al 3)

La geografía del bien
No es tierra comunal
Sino de aquellos que al fin
sembraron con la verdad.

Estribillo.


Esta canción se la dedica a Jesica que es una genia en la música.
Y  a Luisisna Broggi, que una hermosa mujer y amiga.
~ = LIGADURA
/  = ARRASTRE
Suggest correction
Give kudos to tab author, rate the tab!
1 2 3 4 5
comments
print report bad tab
guest
You may want to rate the tab now too:
select rating
Wanna post a correction for this tab? Suggest correction