Oops, an error
Loading. Please wait.

Las Alas De La Libertad Tab

46 views 1 this week
no commentswrite comment
1 2 3 4 5
3 more votes to show rating
add to favorites
launch autoscroll
font size
0
reset
how to read this tab
guitar tuner
×
Best way to learn
"Las Alas De La Libertad"
Autoscroll
slow
fast
+/-
esc
set tempo
stop
Intro:
e|------------------------------------------5/3/5---3-5-3---3---
B|--------3--1-----6-8--------3-5/6/5/6--5-3--------------6-----
G|-2---0--------------8/9----2----------------------------------
D|-------3------------------------------------------------------
A|--------------------------------------------------------------
E|--------------------------------------------------------------

e|-3-5-3------1-3------12---------------------------------------
B|------6-3-----4/5---------------------------------------------
G|--------------------------------------------------------------
D|--------------------------------------------------------------
A|--------------------------------------------------------------
E|--------------------------------------------------------------

Punteo:
e|--------------------------------------------------------------
B|--------------------------------------------------------------
G|-7-9-10-9-7---7-9-10-9-7--------------------7-6-7-------------
D|---------------------------7-9-10-9-7---6-7-------7--7--------
A|-------------------------------------------------------10/8---
E|--------------------------------------------------------------

El punteo se repite en casi siempre despues de las estrofas...
Escuchen la cancion y se van a dar cuenta!
Suggest correction
Give kudos to tab author, rate the tab!
1 2 3 4 5
comments
print report bad tab
guest
You may want to rate the tab now too:
select rating
Wanna post a correction for this tab? Suggest correction