Oops, an error
Loading. Please wait.

Marca Borrada Tab

version 1
version 1

Whole song

54 views 1 this week
no commentswrite comment
1 2 3 4 5
3 more votes to show rating
add to favorites
launch autoscroll
font size
0
reset
how to read this tab
guitar tuner
×
Best way to learn
"Marca Borrada"
Autoscroll
slow
fast
+/-
esc
set tempo
stop
Hola aca les dejo Marca Borrada!!!
ya con la intro!!! esta geniaaalll!!!
se la kiero dedicar a las ANGELITAS ROJERAS!!!! las kiero!!!

un mega abrazo a todos... Ale

E||---------------|------------------|---------------|------------------|
B||---------------|------------------|---------------|------------------|
G||---------------|------------------|---------------|------------------|
D||-------2-0---3-|-0---3-2-0---2-0--|-------2-0---3-|-0---3-2-0---2-0--|
A||--0-0------4---|--0--------4------|--0-0------4---|--0--------4------|
E||---------------|------------------|---------------|------------------|


E||---------------|------------------|---------------|------------------|
B||---------------|------------------|---------------|------------------|
G||---------------|------------------|---------------|------------------|
D||-------2-0---3-|-0---3-2-0---2-0--|-------2-0---3-|-0---3-2-0---2-0--|
A||--0-0------4---|--0--------4------|--0-0------4---|--0--------4------|
E||---------------|------------------|---------------|------------------|


A7 Dm A7 Dm A7 Dm A7 Dm

Dm                        D7                 Gm
Soñando con regresar fué larga tal vez la ausencia
                         A#       E7          A7
anduve por la querencia detrás de lo fraternal
                  A#7  A7                 Dm
allá en el algarrobal que al norte me lleva.


A7 Dm A7 Dm A7 Dm A7 Dm

Dm                        D7                Gm
De chango yo supe andar descalzo por los caminos
                            A#     E7       A7
el rumbo de un peregrino cantando tome al final
                     A#7     A7         Dm
nostalgia de aquél lugar que llevo conmigo.

A7 Dm A7 Dm A7 Dm A7 Dm

Dm                   D7                  Gm
Está por amanecer se escuchan cantar las aves,
                     A#       E7             A7
y al trino de los zorzales el viento da su poder
                   A#7    A7         Dm
el monte demuestra ser cantor como nadie.

Dm                      D7            Gm
El patio recién regao debajo de la enramada
                     A#        E7              A7
violínes, también guitarrras y bombos van a sonar
                    A#7    A7         Dm
la fiesta va a comenzar en Marca Borrada.

E||---------------|------------------|---------------|------------------|
B||---------------|------------------|---------------|------------------|
G||---------------|------------------|---------------|------------------|
D||-------2-0---3-|-0---3-2-0---2-0--|-------2-0---3-|-0---3-2-0---2-0--|
A||--0-0------4---|--0--------4------|--0-0------4---|--0--------4------|
E||---------------|------------------|---------------|------------------|


E||---------------|------------------|---------------|------------------|
B||---------------|------------------|---------------|------------------|
G||---------------|------------------|---------------|------------------|
D||-------2-0---3-|-0---3-2-0---2-0--|-------2-0---3-|-0---3-2-0---2-0--|
A||--0-0------4---|--0--------4------|--0-0------4---|--0--------4------|
E||---------------|------------------|---------------|------------------|


A7 Dm A7 Dm A7 Dm A7 Dm

Dm                        D7           Gm
Volví para ver el sol que sale de la rivera
                        A#       E7      A7
bailar una chacarera de nuevo junto al fogón,
                A#7   A7            Dm
cantando de corazón debajo e' la brea.

A7 Dm A7 Dm A7 Dm A7 Dm

Dm                           D7              Gm
La luna que alumbra más y el brillo de las estrellas
                      A#        E7                  A7
no se encuentra donde quiera el cielo que han de mirar
                      A#7        A7          Dm
yo sé que no hay otro igual como el de mi tierra.

A7 Dm A7 Dm A7 Dm A7 Dm

Dm                    D7              Gm
Y todo lo que viví a orillas del Pilcomayo
                    A#        E7              A7
en mi pecho está clavado un tiempo que fuí feliz
                     A#7     A7           Dm
yo sé que no ha de morir mi amor por el pago.

Dm                      D7            Gm
El patio recién regao debajo de la enramada
                     A#        E7              A7
violínes, también guitarrras y bombos van a sonar
                    A#7    A7         Dm
la fiesta va a comenzar en Marca Borrada...
Suggest correction
Give kudos to tab author, rate the tab!
1 2 3 4 5
comments
print report bad tab
guest
You may want to rate the tab now too:
select rating
Wanna post a correction for this tab? Suggest correction