Oops, an error
Loading. Please wait.

Voy A Volver A Buscarte Tab

64 views 1 this week
no commentswrite comment
1 2 3 4 5
3 more votes to show rating
add to favorites
launch autoscroll
font size
0
reset
how to read this tab
guitar tuner
×
Best way to learn
"Voy A Volver A Buscarte"
Autoscroll
slow
fast
+/-
esc
set tempo
stop
Bueno aquí les dejo esta bella canción
espero la disfruten...
Creo que los punteos estan correctos.


Intro: SI - LA - MI - FA#
       LA - MI - FA# . SI

e|---------------------0-5-4-5h4-2-0-2h0----|
b|-2/4-2---5-4p5h4-2-2-------------------4--|
g|-------4----------------------------------|
D|------------------------------------------|
A|------------------------------------------|
E|------------------------------------------|

   Con ritmo de chacarera
Intro: SI - LA - MI - FA#
       LA - MI - FA# . SI


e|----------------------|
b|-2/4---2--------------|
g|-----4---2-1-----1----|
D|-------------2-4---4--|
A|----------------------|
E|----------------------|

e|------------------------|
b|---2---5-4-2-2p4h2------|
g|-2---4-------------3-4--|
D|------------------------|
A|------------------------|
E|------------------------|


SI                DO#7          FA#
Yo se que la luna tenia en sus planes
DO#m                MI            FA#
Dejarnos a oscuras y que el tiempo pase
LA            MI       FA#        SI
Y que las estrellas oculten a los amantes

Intro: SI - LA - MI - FA#
       LA - MI - FA# . SI

e|----------------------|
b|-2/4---2--------------|
g|-----4---2-1-----1----|
D|-------------2-4---4--|
A|----------------------|
E|----------------------|

e|------------------------|
b|---2---5-4-2-2p4h2------|
g|-2---4-------------3-4--|
D|------------------------|
A|------------------------|
E|------------------------|

Inmenso era el cielo que nos cobijaba
También el deseo de amar hasta el alba
Eterno el suspiro y el beso en la madrugada

Intro: SI - LA - MI - FA#
       LA - MI - FA# . SI

e|----------------------|
b|-2/4---2--------------|
g|-----4---2-1----------|
D|-------------2-4------|
A|----------------------|
E|----------------------|

e|----------------------|
b|---2---5-4-2----------|
g|-2---4-------4--------|
D|----------------------|
A|----------------------|
E|----------------------|

Me fui con el viento amigo entrañable
Que siempre me dice que no soy de nadie
Seguí mi camino aunque quería quedarme


Tu amor es el puerto final de mi viaje
Yo siempre en mi pecho prometo llevarte
Ya no tengas dudas voy a volver a buscarte

Intro: SI - LA - MI - FA#
       LA - MI - FA# . SI

e|---------------------0-5-4-5h4-2-0-2h0----|
b|-2/4-2---5-4p5h4-2-2-------------------4--|
g|-------4----------------------------------|
D|------------------------------------------|
A|------------------------------------------|
E|------------------------------------------|

   Con ritmo de chacarera
Intro: SI - LA - MI - FA#
       LA - MI - FA# . SI


e|----------------------|
b|-2/4---4-5-5h4---5-2--|
g|-----4---------4------|
D|----------------------|
A|----------------------|
E|----------------------|

e|----------------------|
b|-2---------------2----|
g|---4-2-4-1-----3---4--|
D|-----------2-4--------|
A|----------------------|
E|----------------------|

Aquella mañana juramos amarnos
Y fuimos la presa de un tiempo tirano
Pinto de tristeza el amanecer de un verano

Intro: SI - LA - MI - FA#
       LA - MI - FA# . SI

e|----------------------|
b|-2/4---2--------------|
g|-----4---2-1-----1----|
D|-------------2-4---4--|
A|----------------------|
E|----------------------|

e|------------------------|
b|---2---5-4-2-2p4h2------|
g|-2---4-------------3-4--|
D|------------------------|
A|------------------------|
E|------------------------|

Sintió la madera dolor en el alma
Lloraron las cuerdas de aquella guitarra
Al ver con la pena que se quedo tu mirada

Intro: SI - LA - MI - FA#
       LA - MI - FA# . SI

e|----------------------|
b|-2/4---2--------------|
g|-----4---2-1----------|
D|-------------2-4------|
A|----------------------|
E|----------------------|

e|----------------------|
b|---2---5-4-2----------|
g|-2---4-------4--------|
D|----------------------|
A|----------------------|
E|----------------------|

Le pido al camino no borre mis pasos
Las huellas que nacen despues del abrazo
que curen la pena de un corazon en pedazos

Tu amor es el puerto final de mi viaje
Yo siempre en mi pecho prometo llevarte
Ya no tengas dudas voy a volver a buscarte

 NOTA: Los acordes se repiten entodas
las estrofas incluido el estribillo
de igual manera, por eso no los coloque.
Suggest correction
Give kudos to tab author, rate the tab!
1 2 3 4 5
comments
print report bad tab
guest
You may want to rate the tab now too:
select rating
Wanna post a correction for this tab? Suggest correction