Oops, an error
Loading. Please wait.

Ella Es Mi Mujer Tab

102 views 1 this week
no commentswrite comment
1 2 3 4 5
3 more votes to show rating
add to favorites
launch autoscroll
font size
0
reset
how to read this tab
guitar tuner
Autoscroll
slow
fast
+/-
esc
set tempo
stop
Help us to improve Ultimate-Guitar.com Take our survey!
×
Arpegio; Tocas 3 cuerdas para abajo y 3 cuerdas para arriba dependiendo
dependiendo del acorde.


Empieza, en SOL con arpegio


e|---------------------------------------------------------------------|
b|1-3/5-3/5-1-1/3-3/5-3-3/5-3-1-1/3--1-3/5-3/5-1-1/3-3/5-3-3/5-3-1-1/3-|
g|---------------------------------------------------------------------|
                                             SOL(arpegio)
e|-----------------------------------------.-----1--------|
b|-----------------------------------------.------1-------|
g|-----2-4-4/5-4---4/5-4---4/5-4---4/5-4-2-.-------0------|
D|-5-5-----------5-------5-------5---------.---0----------|
A|-----------------------------------------.--2-----------|
E|-----------------------------------------.-3------------|

            G(apagando) -Luego rasgeo para abajo-
Por que te elegi, sin que me
     C                D
eligieras, te di mi cariño sin que

                 (adorno para caer en en Em)
              D|-----1---0--------|
              A|---2----0---------|
              E|-3-----2----------|

        G               Em
me quisieras, por que contigo
            Bm
dejo de ser nadie, me haces sentir
 C                     D
vivo, me haces sentir grande,
              G                  C
por ti puedo ser el hombre que sueñas,
               D                    G
puedo ser un Romeo si tu eres mi Julieta
                   Em             Bm
puedo alcanzar el cielo, con una piedra
              C                   D
o ser el mas cursi de todos los poetas...


           C
Y no me la creo, que tu andes
    G               C
conmigo, y no me la creo, parezco
     G              Em
un niño, y no me la creo, que me
          Em                  C
quieras tanto quiero hacerme viejo
            D                 C
contigo abrazado, y no me la creo
                G                  C
que estes junto ami, ya conosi el cielo
           G               Bm
ya puedo morir, y no me la creo
                    Em
cuando preguntan quien es..
         C                  D
y yo vanidozo les digo orgulloso..
             G
ella es mi mujer...

e|---------------------------------------------------------------------|
b|1-3/5-3/5-1-1/3-3/5-3-3/5-3-1-1/3--1-3/5-3/5-1-1/3-3/5-3-3/5-3-1-1/3-|
g|---------------------------------------------------------------------|
                                             SOL(arpegio)
e|-----------------------------------------.-----1--------|
b|-----------------------------------------.------1-------|
g|-----2-4-4/5-4---4/5-4---4/5-4---4/5-4-2-.-------0------|
D|-5-5-----------5-------5-------5---------.---0----------|
A|-----------------------------------------.--2-----------|
E|-----------------------------------------.-3------------|


           C
Y no me la creo, que tu andes
    G               C
conmigo, y no me la creo, parezco
     G              Em
un niño, y no me la creo, que me
          Em                  C
quieras tanto quiero hacerme viejo
            D                 C
contigo abrazado, y no me la creo
                G                  C
que estes junto ami, ya conosi el cielo
           G               Bm
ya puedo morir, y no me la creo
                    Em
cuando preguntan quien es..
         C                  D
y yo vanidozo les digo orgulloso..
             G
ella es mi mujer...


e|-----------------------------------------|
b|-----------------------------------------|
g|-----2-4-4/5-4---4/5-4---4/5-4---4/5-4-2-|   G
D|-5-5-----------5-------5-------5---------|
A|-----------------------------------------|
E|-----------------------------------------|


att:KevinVega.
Suggest correction
Give kudos to tab author, rate the tab!
1 2 3 4 5
comments
print report bad tab
guest
You may want to rate the tab now too:
select rating
Wanna post a correction for this tab? Suggest correction