Oops, an error
Loading. Please wait.

Chica Presumida Tab

11 views 1 this week
no commentswrite comment
1 2 3 4 5
3 more votes to show rating
add to favorites
launch autoscroll
font size
0
reset
how to read this tab
guitar tuner
Autoscroll
slow
fast
+/-
esc
set tempo
stop
Help us to improve Ultimate-Guitar.com Take our survey!
×
INTRO


 Em                                      D
|-----------------------------------------------------|
|-----------------------------------------------------|
|-----------------------------------------------------|
|------10-9------10-9-------10-9---10---12------12----|
|---10---------10---------10--------------12-12----12-|
|-12---------12---------12----------------------------|
(NOTA EN EL 9 Hacer un ligado con el 10 (9-10-9))

 D
|----------------------------------------------------|
|----------------------------------------------------|
|----------------------------------------------------|
|----------------------------------------------------|
|-------9--14-12---------9--14-12---------9--14--12--|
|-10-10------------10-10-----------10-10-------------|

 Em
|-------------------|
|-------------------|
|-------------------|
|-12-14-------14----|
|-------14-14----14-|
|-------------------|

_______________________________________________________________________
AHORA LO MISMO PERO OCTAVEADO (Hacer el mismo ligado en el Em)
L=LIGADO

 Em                                              D
|----------------------------------------------------------------|
|-------13-12---------13-12---------13-12---13---15--------15----|
|----12------------12------------12------------------14-14----14-|
|-14------------14------------14---------------------------------|
|----------------------------------------------------------------|
|-L-------L-----L-------L------L------L--------L-----------------|

 D                                                       Em
|---------------------------------------------------------------------|
|----------12-10-----------12-10-----------12-10--12-----17-------17--|
|-------11--------------11--------------11------------------16-16---16|
|-12-12-----------12-12-----------12-12-------------------------------|
|---------------------------------------------------------------------|
|---------------------------------------------------------------------|


_______________________________________________________________________
PUNTEO DEL MEDIO

 D                            Em
|----------------10(10-12)-12-12-12-(12-10)------|
|-------------10----------------------------12-12|
|-----------11-----------------------------------|
|-(10-12)----------------------------------------|
|------------------------------------------------|
|------------------------------------------------|

   D                          Em
|------------------10(10-12)-12-12-12--10-------|
|---------------10-------------------------12---|
|------------11---------------------------------|
|-(10-12)---------------------------------------|
|-----------------------------------------------|
|-----------------------------------------------|

  D                           Em
|-------------------------------------------...
|---------------10-10--12-12-12--10--8------...
|-----------11-------------------------9----...
|-(10-12)-----------------------------------...
|-------------------------------------------...
|-------------------------------------------...

 D                              Em
...-----------------------------------------|
...--------------10-10----------------------|
...----------11--------(11-12)-11----9-7-9--|
...-(10-12)---------------------------------|
...-----------------------------------------|
...-----------------------------------------|

bueno esos son todos los punteos obligados del tema, los acordes estan
en donde dice ACORDES al lado de esta TAB SALU2
Suggest correction
Give kudos to tab author, rate the tab!
1 2 3 4 5
comments
print report bad tab
guest
You may want to rate the tab now too:
select rating
Wanna post a correction for this tab? Suggest correction