Oops, an error
Loading. Please wait.

La Cucharita Tab

2,045 views 18 this week
no commentswrite comment
1 2 3 4 5
3 more votes to show rating
add to favorites
×
Save as Personal and add changes to this tab that will be seen only by you. Learn more ›
×
You can save this tab as Personal to edit and correct it or add notes. All changes will be seen only by you. Learn more »
save as personal
new!
launch autoscroll
font size
0
reset
how to read this tab
guitar tuner
Autoscroll
slow
fast
+/-
esc
set tempo
stop
Aquí les va otra transcripción mía espero les guste.
La cucharita del maestro Jorge Velosa
esta canción puedes tocarla con ritmo de merengue carranguero


                                       D7
e-10-8-7-8-7----7-------7-10-8-7-8-7-----8-7----
B------------10---8---8--------------10------10-
G-------------------7---------------------------
D-----------------------------------------------
A-----------------------------------------------
E-----------------------------------------------

                                 G    C
e-7------------------8-7----7------//12-12-12-12
B---10-8-10-7---7-10-----10---10-8-//13-13-13-13
G-------------7---------------------------------
D-----------------------------------------------
A-----------------------------------------------
E-----------------------------------------------

            D7                      G
e-12-12-12-8--8--8--10-12-12-12-10-8--7--7-7-8--
B-13-13-13-10-10-10-12-13-13-13-12-10-8--8-8-10-
G-----------------------------------------------
D-----------------------------------------------
A-----------------------------------------------
E-----------------------------------------------

          D7                          G      G
e-10-10-10-8--7-5--5-5-7-8--8--8--7-5-7//--//----7
B-12-12-12-10-8-7--7-7-8-10-10-10-8-7-8//--//--8--
G------------------------------------------//7----
D-------------------------------------------------
A-------------------------------------------------
E-------------------------------------------------
             D7                     G
e-12-7---7--------------8-7----7-----//-----------
B------8---8-10----7-10-----10---10-8//-----------
G----------------7-------------------//-----------
D-------------------------------------------------
A-------------------------------------------------
E-------------------------------------------------

  G                                          D7
//En la vereda velandia del municipio de Saboyá
                                             G
una cucharita e' hueso me regalaron por amistad//
   G                      D7
//la cucharita se me perdió
                         G
y la cucharita se me perdió//


PUNTEO:(este punteo se repite siempre después de cada párrafo o estrofa)
e-//12-12-12-12-12-12-12-8--8--8--10-12-12-12-10
B-//13-13-13-13-13-13-13-10-10-10-12-13-13-13-12
G-----------------------------------------------
D-----------------------------------------------
A-----------------------------------------------
E-----------------------------------------------


e-8--7--7-7-8--10-10-10-8--7-5--5-5-7-8--8--8--7
B-10-8--8-8-10-12-12-12-10-8-7--7-7-8-10-10-10-8
G-----------------------------------------------
D-----------------------------------------------
A-----------------------------------------------
E-----------------------------------------------


e--5-7//--//----7-12-7---7--------------8-7----7--------
B--7-8//--//--8--------8---8-10----7-10-----10---10-8//-
G---------//7--------------------7-------------------//-
D-------------------------------------------------------
A-------------------------------------------------------
E-------------------------------------------------------

  G                                               D7
//Y como a los quince días en pleno centro de Bogotá
                                                 G
me robaron los papeles la cucharita y no sé que más//
  G                      D7
//la cucharita se me perdió
                          G
y la cucharita se me perdió//


punteo...

  G                                          D7
//mi cedula se consigue y mi libreta de militar
                                                    G
pero cucharita e' hueso y asi e' bonita pa que pensar//
  G                       D7
//la cucharita se me perdió
                          G
y la cucharita se me perdió//


punteo...

  G                                                 D7
//Como lo ve carranguero la cucharita onde fue a parar
                                                      G
puede ser que cuando vuelva me la reponga por otra igual//
  G                       D7
//la cucharita se me perdió
                        G
la cucharita se me perdió//


puedes terminar con el punteo o de una vez con el ultimo párrafo.
Suggest correction
Give kudos to tab author, rate the tab!
1 2 3 4 5
comments
print report bad tab
guest
Wanna post a correction for this tab? Suggest correction