Oops, an error
Loading. Please wait.

La Cucharita Tab

version 1
version 1

Whole song

94 views 3 this week
no commentswrite comment
1 2 3 4 5
3 more votes to show rating
add to favorites
launch autoscroll
font size
0
reset
how to read this tab
guitar tuner
×
Best way to learn
"La Cucharita"
Autoscroll
slow
fast
+/-
esc
set tempo
stop
Intro :
E ----9-7-6-7-6--6-------6-9-7-7-7-7-6----
B --------------9---7-7-9---------------9-
G-----------------------------------------
D-----------------------------------------
A-----------------------------------------
E-----------------------------------------

E-7-6--6---------------7-6-6-6-6----------
B-----9-9-7-9-6--6-7-9-----------9-7------
G-----------------------------------------
D-----------------------------------------x 2(
A-----------------------------------------
E-----------------------------------------

2 intro:
E -9/12--12-12-12-12-12--9-10-12--10-10-10-10-10-9-7--7-9-10-9-9-9-9-7
B---------------------------------------------------------------------
G---------------------------------------------------------------------
D---------------------------------------------------------------------
A---------------------------------------------------------------------
E---------------------------------------------------------------------

E-----------------------------------------
B-10--10-12-13--12-12-12-12-12-12-10-8----
G-----------------------------------------X2
D-----------------------------------------
A-----------------------------------------
E-----------------------------------------

3 intro:
E ------710-8888-7------------7-6666-----------
B---810-----------10-----78-10-------10-8------
G----------------------------------------------
D----------------------------------------------
A----------------------------------------------
E----------------------------------------------

(RE-LA)
en la vereda velandia del municipio de saboya
una cucharita e' hueso me regalaron por amistad (bis)

coro:
y la cucharita se me perdio
LA
la cucharita se me perdio
RE
la cucharita se me perdio
LA
la cucharita se me perdio
RE
la cucharita se me perdio


>>>(INTRO 2,3)

RE                      LA
y como a los 15 dias en pleno centro de bogota
                             RE
me robaron los papeles, la cucharita y no se q mas(bis)

>>>(coro)

>>>(INTRO 2,3)

>>>(ESTROFA 3 -INTRO 2,3 ?FIN)

bueno como no enconrtre el TAB de esta cancion decidí hacerla
espero les siba y pues suerte que nuestro folclor (colombiano
es senzacional  mi nombre es harold de bogotá colombia vemos¡¡
Suggest correction
Give kudos to tab author, rate the tab!
1 2 3 4 5
comments
print report bad tab
guest
You may want to rate the tab now too:
select rating
Wanna post a correction for this tab? Suggest correction