Oops, an error
Loading. Please wait.

La Cucharita Tab

version 2
version 2

Whole song

43 views 1 this week
no commentswrite comment
1 2 3 4 5
3 more votes to show rating
add to favorites
launch autoscroll
font size
0
reset
how to read this tab
guitar tuner
Autoscroll
slow
fast
+/-
esc
set tempo
stop
Help us to improve Ultimate-Guitar.com Take our survey!
×
Bueno esta es una tab muy corta pero de muy buena
calidad no es mia pero la encontre y
me parece q es muy buena por q suena demasiado
 parecido a la original y es facil de tocar

E |--10-8--7--8--7-----7-----------7--10L--|
B |-----------------10----8-----8----------|
G |--------------------------7-------------|
D |----------------------------------------|
A |----------------------------------------|
E |----------------------------------------|


--10-8--7--8-----7----------------------|
--------------------10------------------|
----------------------------------------|
----------------------------------------|
----------------------------------------|
----------------------------------------|


--8--7-----7-----------------------8L---|--8--7-----7---------------------||
--------10----10-8--10-------7--10------|--------10-------10-8------------||
-----------------------7--7-------------|--------------------------------o||
----------------------------------------|--------------------------------o||
----------------------------------------|---------------------------------||
----------------------------------------|---------------------------------||


--12-12-12-12-12-12L12-8--8--8-----10---|
----------------------------------------|
----------------------------------------|
----------------------------------------|
----------------------------------------|
----------------------------------------|


--12-12-12-10L10-8--10----7--7--8--10L--|
----------------------------------------|
----------------------------------------|
----------------------------------------|
----------------------------------------|
----------------------------------------|


--10-10-10-8L-8--7--8-----------7--8L---|
--------------------------10-10---------|
----------------------------------------|
----------------------------------------|
----------------------------------------|
----------------------------------------|


--8--8--8--7--------7-------------------|
-----------------10---------------------|
----------------------------------------|
----------------------------------------|
----------------------------------------|
----------------------------------------|


--12-12-12-12-12-12L12-8--8--8-----10---|
----------------------------------------|
----------------------------------------|
----------------------------------------|
----------------------------------------|
----------------------------------------|


--12-12-12-10L10-8--10----7--7--8--10L--|
----------------------------------------|
----------------------------------------|
----------------------------------------|
----------------------------------------|
----------------------------------------|


--10-10-10-8L-8--7--8-----------7--8L---|
--------------------------10-10---------|
----------------------------------------|
----------------------------------------|
----------------------------------------|
----------------------------------------|


--8--8--8--7----------------------------||
-----------------10-8-------------------||
----------------------------------------||
----------------------------------------||
----------------------------------------||
----------------------------------------||
Suggest correction
Give kudos to tab author, rate the tab!
1 2 3 4 5
comments
print report bad tab
guest
You may want to rate the tab now too:
select rating
Wanna post a correction for this tab? Suggest correction