Oops, an error
Loading. Please wait.

Que Nem Mare Chords

56 views 1 this week
no commentswrite comment
1 2 3 4 5
please rate
add to favorites
launch autoscroll
font size
0
reset
transpose
0
reset
simplify chords
display chords
guitar tuner
Autoscroll
slow
fast
+/-
esc
set tempo
stop
Help us to improve Ultimate-Guitar.com Take our survey!
×
Author
Difficulty
advanced
(intro) ( A7M A6 ) (2x)  Am(7M) Am6  B/A E   C#7
        ( A7M A6 ) (2x)  Am(7M) Am6    B/A E E4 E   F7M(13)/C

(solo)

|---4-2-0--------4-2-0---------|
|------------------------------|
|-1-------1--------------------|
|-----------4--1-------4-2-----|
|------------------------------|
|------------------------------|


F#m7          B7(b9)
Faz um tempão que   eu não dou trégua
   G#m7         E7(4) E7  C#7(4)  C#7*
Ao meu  coração
  F#m7             B7(b9)
É você o meu lugar quando tudo
           G#m7     C#7(4)   C#7*
Por um fio está

     F#m7
Nada vai me fazer desistir do amor
     B7(4)               B7
Nada vai   me fazer desistir de voltar
     G#m7
Todo dia pro seu calor
              C#7(4/9)         C#7*
Nada vai me levar      do amor

     F#m7
Nada vai me fazer desistir do amor
     B7(4)               B7
Nada vai   me fazer desistir de voltar
     G#m7
Todo dia pro seu calor
              C#7(4/9)         C#7*
Nada vai me levar      do amor

( A7M A6  A7M A6  Am(7M) Am6  B/A E E4 E  F7M(13)/C )

F#m7          B7(b9)
Faz um tempão que    eu não dou asas
  G#m7          E7(4) E7  C#7(4)  C#7*
A minha emoção
A7M                 Am(7M)
Passear, distrair e me     achar
   B7(4/9)       E7M(9)       E7(9)     C#7(4)   C#7*
Lá no      fundo de     ti...

  F#m7
A saudade bateu foi que nem maré
       B7(4)              B7
Quando vem  de repente de tarde
             G#m7
Invade, transborda esse bem-me-quer
                C#7(4/9)      C#7*
A saudade é que nem      maré

  F#m7
A saudade bateu foi que nem maré
       B7(4)              B7
Quando vem  de repente de tarde
             G#m7
Invade, transborda esse bem-me-quer
                C#7(4/9)      C#7*
A saudade é que nem      maré

( F#m7  B7(4)  B7  G#m7   C#7(4/9)   C#7 )

     F#m7
Nada vai me fazer desistir do amor
     B7(4)             B7
Nada vai me fazer desistir de voltar
     G#m7
Todo dia pro seu calor
              C#7(4/9)         C#7*
Nada vai me levar      do amor

  F#m7
A saudade bateu foi que nem maré
       B7(4)              B7
Quando vem  de repente de tarde
             G#m7
Invade, transborda esse bem-me-quer
                C#7(4/9)      C#7*
A saudade é que nem      maré

(solo)
|-------------------------|----------------------------------------------------------|
|---4-5-5-5-5-4-2-4-5-2---|---4-5-5-5-5-4-5-7-5-4-5-4-2-4-2---2-4------2-4-2---2-4---|
|-4-----------------------|-4-------------------------------4-----4--4-------4-----4-|
|-------------------------|----------------------------------------------------------|
|-------------------------|----------------------------------------------------------|
|-------------------------|----------------------------------------------------------|
Suggest correction
Give kudos to tab author, rate the tab!
1 2 3 4 5
comments
print report bad tab
guest
You may want to rate the tab now too:
select rating
Wanna post a correction for this tab? Suggest correction