Oops, an error
Loading. Please wait.

Im Schneckenhaus tab

by Joris
2,341 views 3 this week
no commentswrite comment
1 2 3 4 5
x 3
add to favorites
×
Save as Personal and add changes to this tab that will be seen only by you. Learn more ›
×
You can save this tab as Personal to edit and correct it or add notes. All changes will be seen only by you. Learn more »
launch autoscroll
font size
0
reset
how to read this tab
guitar tuner
edit
Autoscroll
slow
fast
+/-
esc
set tempo
stop
This is my take at this wonderful song. I absolutely adore this version of it 
(https://www.youtube.com/watch?v=_K8yHfU6bSw) and took this and not the studio version as basis for my tab. 
He plays it capo 5 so I am guessing (hoping) he has his guitar tuned one step down. Maybe not, maybe he 
used a different tuning alltogether.

Tuning: (4th) D-String half tone down to C#
Capo:   3 (all chords relative to capo 3)


Chords used:
e |-(0)--(0)----(0)-(0)--(0)-(0)--(0)-(0)--------------|
B |--0----0------0---0----0---0----0---0---------------|
G |--9----8------6---4----3---2----1---8-----------2---|
C#|-(0)--(10)---(8)-(0)--(0)-(0)--(3)-(10)--8------3---|
A |--11---9------7---6----4---4----2---9----9------3---|
E |--9----7------5---4----2---2----0---8----8------2---|
    C#m7  B      A  G#m   Gb F#m   E   Cm F#/C or F#m7


Verse:
Ich hab kein Mitleid für mich selbst,viel zu selten für dich.
e |-----------------------------------------------------------------------|
B |-----------------------------------------------------------------------|
G |---9----9----9-----8---6--6--6---6---8---8---8---8---8---8---8---8-----|
C#|-----------------------------------------------------------------------|
A |------11--------9-------7------7-------9-------9-------9-------9-------|
E |-9--------9-----------5------8------7-----7--------7-------7-----------|
        C#m7            B    A             B

             Die letzte Brücke gesprengt, die letzte Grenze in Sicht.
e |-----------------------------------------------------------------------|
B |-----------------------------------------------------------------------|
G |---9----9----9-----8---6--6--6---6---8---8---8---8---8---8---8---8-----|
C#|-----------------------------------------------------------------------|
A |------11--------9-------7------7-------9-------9-------9-------9-------|
E |-9--------9-----------5------8------7-----7--------7-------7-----------|
        C#m7            B    A             B

Zwischen Hunderten von Leuten, fühl mich trotzdem allein, Steh in unsichtbaren Mauern, zwar geborgen, doch
e |-----------------------------------------------------------------------|
B |-----------------------------------------------------------------------|
G |---9-----9---9-----8-----6--6--6---6---8---8---8--6---4--4--4---4------|
C#|-----------------------------------------------------------------------|
A |------11----------9-------7------7------9---------------6-----6--------|
E |-9---------9-----------5------5------7------7----5--4------4-----------|
        Em        B       A              B           A   G#m

klein, bin verloren im Sein.
e |-----------------------------------------------------------------------|
B |-----------------------------------------------------------------------|
G |----3---3---3---3---3---3---3---3---2---2---2----2----2---2---2-----2--|
C#|-----------------------------------------------------------------------|
A |------4-------4-------4-------4-------4--------4-------4---------4-----|
E |--2-------2-------2-------2-------2--------2-------2--------2----------|
        Gb                              F#m

Same for Verse 2 (vor fünf Minuten gekommen...)


Chorus:
Wenn der Himmel bricht, mir so vieles verspricht.
e |-----------------------------------------------------------------------|
B |-----------------------------------------------------------------------|
G |----6----6---6---6---1----1---1----1---8---8---8----8---9---9---9---9--|
C#|-----------------------------------------------------------------------|
A |------7--------7-------2--------2---------9-------9-------11------11---|
E |--5--------5-------0--------0--------7-------7--------9--------9-------|
     A                E                 B                  C#m7

Kommt der Zweifel in mir, ich hab's erlebt, ich war schon hier. Und wenn's am
e |-----------------------------------------------------------------------|
B |-----------------------------------------------------------------------|
G |----6----6---6---6---1----1---1----1---8---8---8----8---9---9---9---9--|
C#|-----------------------------------------------------------------------|
A |------7--------7-------2--------2---------9-------9-------11------11---|
E |--5--------5-------0--------0--------7-------8--------9--------9-------|
     A                E                 B       Cm          C#m7

schönsten ist, ich nichts mehr vermiss, dann nehm ich 
e |-----------------------------------------------------------------------|
B |-----------------------------------------------------------------------|
G |----6----6---6---6---1----1---1----1---8---8---8----8---9---9---9---9--|
C#|-----------------------------------------------------------------------|
A |------7--------7-------2--------2---------9-------9-------11------11---|
E |--5--------5-------0--------0--------7-------8--------9--------9-------|
     A                E                 B       Cm          C#m7

Reißaus und reiß aus.
e |-----------------------------------------------------------------------|
B |-----------------------------------------------------------------------|
G |----6----6---6---8---9----9---9---9-----8---8---8---8----8---8---8----8|
C#|-----------------------------------------------------------------------|
A |------7----------------11-------11--------9-------9--------9-------9---|
E |--5--------5----7---9--------9--------7--------7--------7-------7-------|
     A             B   C#m7                B        

Chords can then be played with the open 4th string C# (unless stated otherwise, mainly the E chord needs a 
3 on that string, A and B are optional, see Outro) and B and e strings. Or you make it a quiet acoustic 
version and keep picking.

Instrumental Part:

C#m7        B       A          B          A   G#m
C#m7        B       A          B           

Verse 3 (Ich bin viel zu träge...) same as Verses 1&2

Chorus 2 same as Chorus 1, except I have the impression they (maybe only the bass) quickly go back to G#m on "Und wenns's am" 
between the C#m7 and the A (schönsten ist...). The same goes for the next line, between C#m7
and A on "dann nehm ich", then go back to A for "Reißaus...".

The picking pattern comes back for Verse number 4 (Jetzt steht meine Welt still…).

Chorus 3: Same as the first two but let it fade out on a whole bar of A (instead of A B C#m7 A) at the end 
of it (Glaub’s mir das ist es nicht wert).

Then you can change back to a mix of chords and strums again for the epic piano outro that I tried to get 
close to on the guitar. Sort out how you want to play it yourself, I added some melody/slides/chord 
variations to imitate the piano.

Outro:
Und wenn’s am schönsten ist und Du nichts mehr vergisst, dann mach die Augen auf…
e |------(0)—(0)—(0)-----(0)-----(0)--------(0)-----(0)-(0)------------|
B |-------0---0---0-------0-------0----------0-------0---0-------------|
G |-------6---6---1-------8-------9----------6---6---1---8-------------|
C#|-------0---8---3-3-5-7-10--8---0----------0-------3---10------------|
A |-------7---7---2-------9---9---11---------7-------2---9-------------|
E |-0-2-4-5---5---0-------7---8---9---0-2-4--5-------0---7-------------|
          A       E       B F#/C C#m7        A       E   B

Repeat until fade out.

The End! Kudos to Joris and his band for writing and arranging this wonderful piece of music.

            
            
Suggest correction
Creating personal tab
Creating personal tab
You can edit any tab online and save it as your Personal.

You can edit, replace or remove any tab part or add personal notes – all changes will be seen only by you.

Personal tabs can be accessed anytime from any device, even offline.
Learn more »
Give kudos to tab author, rate the tab!
1 2 3 4 5
comments
print report bad tab
guest
You may want to rate the tab now too:
select rating
Wanna post a correction for this tab? Suggest correction