Oops, an error
Loading. Please wait.

Genesis Tab

version 1
version 1

Whole song

Interactive

24,564 views 57 this week
3 commentsread comments
1 2 3 4 5
x 15
add to favorites
launch autoscroll
font size
0
reset
how to read this tab
guitar tuner
×
Best way to learn
"Genesis"
Autoscroll
slow
fast
+/-
esc
set tempo
stop
Capo 2

[Intro] (x2)
  G                        D 
e|----------------3-----|--2------0--------------|
B|----------0-----------|---------------3--------|
G|-----0----------------|---------------------0--|
D|-------------------0--|------0-----------0-----|
A|----------------------|--0---------------------|
E|-----3----------------|------------------------|

    Em                       Em7
e|----------------------|--------0---------------|
B|--0----------0--------|--3----------0----------|
G|--------0---------0---|-------------------0----|
D|-----2---------2------|------2---------2-------|
A|----------------------|------------------------|
E|--0--------0----------|--0--------0------------|

[Verse
  A                       D/A         A     
e|----------------------|------------------------|
B|----------------2-----|--2__3-----3----2-------|
G|----------2-----------|---------------------0--|
D|-------2-----------2--|--------4---------2-----|
A|--0----------0--------|--0-----------0---------|
E|----------------------|------------------------|

   G                        D/F#        Em
e|----------------------|------------0----------|
B|--------0-------------|--3-------------0------|
G|----------------------|------2-------------0--|
D|--------0--------0----|---------0-------------|
A|----------------------|-----------------------|
E|--3-------------------|--2-------------0------|

[Bridge]
e|-------5-------3--------|--5-----3---------------|--------5----4-----3----|
B|----------------------2-|------------------------|------------------------|
G|------------------------|--------------5b----2---|------------------------|
D|-------2-----------2----|------2----2------------|-----------2------------|
A|--0---------0-----------|--0--------------0------|--0--0----------0-------|
E|------------------------|------------------------|------------------------|

e|--(3)-------------------|------------------------|------------------------|
B|------------------------|---------3__2-----------|---------3__2-----------|
G|----------2-----5b----2-|-(2)--2----------5b---2-|-(2)--2----------5b-----|
D|-------2----------------|---------4--------------|------------------------|
A|-------------0-----0----|--0-----------0-----0---|--0-----------0-----0---|
E|------------------------|------------------------|------------------------|


************************************

| b    Bend
| (n)  Ghost note

************************************
Suggest correction
comments
print report bad tab
3 comments total.
0 reply
Les Gibson 498 Jan 27, 2008 09:29 AM

there is enough here to be able to play the song exactly. cheers

0 reply
niick16 42 Jul 26, 2014 07:24 AM

Lack of accuracy.

0 reply
duse0207 76 Apr 23, 2015 02:58 PM

its good without the capo, and what chords are you looking at for the bridge. good job

guest
You may want to rate the tab now too:
select rating
Wanna post a correction for this tab? Suggest correction