Oops, an error
Loading. Please wait.

Forever Yours chords

by Jorn
22 views 1 this week
no commentswrite comment
1 2 3 4 5
3 more votes to show rating
add to favorites
×
Save as Personal and add changes to this tab that will be seen only by you. Learn more ›
×
You can save this tab as Personal to edit and correct it or add notes. All changes will be seen only by you. Learn more »
launch autoscroll
font size
0
reset
transpose
0
reset
simplify chords
display chords
guitar tuner
edit
Autoscroll
slow
fast
+/-
esc
set tempo
stop
Author
Difficulty
Strumming
There is no strumming pattern for this song yet. and get +5 IQ
Open Em

[Intro]
   E A9 E7M       E7M E A9        E A9 E7M       E7M E A9                (4x)
e|--------------|---------------|---------------|--------4------|
B|--------------|--4--5---------|---------------|--4--5---------|
G|----------4---|--------6------|---------------|---------------|
E|---4---5------|---------------|--4--5--7------|---------------|
B|--------------|---------------|---------------|---------------|
E|--------------|---------------|---------------|---------------|

e|---0---0---0--|--0--0--0------|--0--0--0------|--0--0--0------|
B|---0---0---0--|--0--0--0------|--0--0--0------|--0--0--0------|
G|---1---2---4--|--4--1--2------|--1--2--4------|--4--1--2------|
E|---0---0---0--|--0--0--0------|--0--0--0------|--0--0--0------|
B|---0---2---4--|--4--0--2------|--0--2--4------|--4--0--2------|
E|---0---0---0--|--0--0--0------|--0--0--0------|--0--0--0------|

[Verse 1]
    E  E7M   E6       
e|-2/4---7---7/9---|
B|-0-0---0---0-0---|
G|-2/4---8---8/9---|
E|-0-0---0---0-0---|
B|-0-0---0---0-0---|
E|-0-0---0---0-0---|

           E               E7M            E6   E7M    
So you're saying you don't love me anymore
           E               E7M            E6   E7M                
Something died deep inside of you

    A9    E7M  B7sus4  E          
e|---0-----0-----0-----0-----|
B|---2-----4-----0-----0-----|
G|---2-----4-----2-----4-----|
E|---0-----0-----2-----4-----|
B|---0-----0-----0-----0-----|
E|---0-----0-----0-----0-----|

        A9          E7M              B7sus4             E
And you say it's too cared but not the way it supposed to be

   E    E7M    E6
e|-2/4---7---7/9---|
B|-0-0---0---0-0---|
G|-2/4---8---8/9---|
E|-0-0---0---0-0---|
B|-0-0---0---0-0---|
E|-0-0---0---0-0---|
     
      E            E7M        E6        E7M
As if I was a stranger after all these years
      E            E7M        E6        E7M      
It's so hard to understand now Im only half a man   

    A9    E7M  B7sus4  E           
e|---0-----0-----0-----0-----|
B|---2-----4-----0-----0-----|
G|---2-----4-----2-----4-----|
E|---0-----0-----2-----4-----|
B|---0-----0-----0-----0-----|
E|---0-----0-----0-----0-----|

A9    E7M  B7sus4    E
And I can't take it, No

 E    E7M    E6
e|-2/4---7---7/9---|
B|-0-0---0---0-0---|
G|-2/4---8---8/9---|
E|-0-0---0---0-0---|
B|-0-0---0---0-0---|
E|-0-0---0---0-0---|
E    E7M          E6          E7M
Baby can't you see ? what your love has done to me

[Chorus]
   E A9 E7M       E7M E A9        E A9 E7M       E7M E A9                
e|--------------|---------------|---------------|--------4------|
B|--------------|--4--5---------|---------------|--4--5---------|
G|----------4---|--------6------|---------------|---------------|
E|---4---5------|---------------|--4--5--7------|---------------|
B|--------------|---------------|---------------|---------------|
E|--------------|---------------|---------------|---------------|

e|---0---0---0--|--0--0--0------|--0--0--0------|--0--0--0------|
B|---0---0---0--|--0--0--0------|--0--0--0------|--0--0--0------|
G|---1---2---4--|--4--1--2------|--1--2--4------|--4--1--2------|
E|---0---0---0--|--0--0--0------|--0--0--0------|--0--0--0------|
B|---0---2---4--|--4--0--2------|--0--2--4------|--4--0--2------|
E|---0---0---0--|--0--0--0------|--0--0--0------|--0--0--0------|

E A9 E7M             E7M E A9     
Im gonna love you forever
E A9 E7M             E7M E A9 
Forever I'll be yours
      E A9 E7M             E7M E A9 
Lady, please never say never
     E A9 E7M             E7M E A9 
For I can't let you go

    Em    Bsus4
e|---0-----0---|
B|---0-----0---|
G|---4-----4---|
E|---3-----2---|
B|---0-----0---|
E|---0-----0---|
                 Em      Bsus4
(I won't let you go, No, No)
 
[Verse 2]
    E  E7M   E6       
e|-2/4---7---7/9---|
B|-0-0---0---0-0---|
G|-2/4---8---8/9---|
E|-0-0---0---0-0---|
B|-0-0---0---0-0---|
E|-0-0---0---0-0---|

           E               E7M            E6   E7M 
We brought life to this world
     E6   E7M          E               E7M            E6   E7M 
A boy and a girl, and they will remind us forever

    A9    E7M  B7sus4  E           
e|---0-----0-----0-----0-----|
B|---2-----4-----0-----0-----|
G|---2-----4-----2-----4-----|
E|---0-----0-----2-----4-----|
B|---0-----0-----0-----0-----|
E|---0-----0-----0-----0-----|

        A9          E7M           B7sus4        E
Of the love that we had, we had something special

    E  E7M   E6       
e|-2/4---7---7/9---|
B|-0-0---0---0-0---|
G|-2/4---8---8/9---|
E|-0-0---0---0-0---|
B|-0-0---0---0-0---|
E|-0-0---0---0-0---|
     E            E7M     E6   E7M 
Now baby can't you see ? what you've done to me

[Chorus]
        E A9 E7M       E7M E A9        E A9 E7M       E7M E A9                
e|--------------|---------------|---------------|--------4------|
B|--------------|--4--5---------|---------------|--4--5---------|
G|----------4---|--------6------|---------------|---------------|
E|---4---5------|---------------|--4--5--7------|---------------|
B|--------------|---------------|---------------|---------------|
E|--------------|---------------|---------------|---------------|

e|---0---0---0--|--0--0--0------|--0--0--0------|--0--0--0------|
B|---0---0---0--|--0--0--0------|--0--0--0------|--0--0--0------|
G|---1---2---4--|--4--1--2------|--1--2--4------|--4--1--2------|
E|---0---0---0--|--0--0--0------|--0--0--0------|--0--0--0------|
B|---0---2---4--|--4--0--2------|--0--2--4------|--4--0--2------|
E|---0---0---0--|--0--0--0------|--0--0--0------|--0--0--0------|

E A9 E7M             E7M E A9     
Im gonna love you forever
E A9 E7M             E7M E A9 
Forever I'll be yours
      E A9 E7M             E7M E A9 
Lady, please never say never
     E A9 E7M             E7M E A9 
For I can't let you go   (i Won't let you go)

    A9    E7M  B7sus4  E           
e|---0-----0-----0-----0-----|
B|---2-----4-----0-----0-----|
G|---2-----4-----2-----4-----|
E|---0-----0-----2-----4-----|
B|---0-----0-----0-----0-----|
E|---0-----0-----0-----0-----|
       
       A9      E7M                B7sus4    E
If you find me somewhere In your heart
       A9      E7M                 B7sus4    E 
Maybe we can make a brand new start

    E7M  E   A
e|---0---0-------|
B|---0---0---5---|
G|---4---1---6---|
E|---0---0---5---|
B|---4---0---5---|
E|---0---0---5---

(NOOOOOOOOOOOOOOOOOOOOOO)
  
[Chorus]
        E A9 E7M       E7M E A9        E A9 E7M       E7M E A9                
e|--------------|---------------|---------------|--------4------|
B|--------------|--4--5---------|---------------|--4--5---------|
G|----------4---|--------6------|---------------|---------------|
E|---4---5------|---------------|--4--5--7------|---------------|
B|--------------|---------------|---------------|---------------|
E|--------------|---------------|---------------|---------------|

e|---0---0---0--|--0--0--0------|--0--0--0------|--0--0--0------|
B|---0---0---0--|--0--0--0------|--0--0--0------|--0--0--0------|
G|---1---2---4--|--4--1--2------|--1--2--4------|--4--1--2------|
E|---0---0---0--|--0--0--0------|--0--0--0------|--0--0--0------|
B|---0---2---4--|--4--0--2------|--0--2--4------|--4--0--2------|
E|---0---0---0--|--0--0--0------|--0--0--0------|--0--0--0------|

E A9 E7M             E7M E A9     
Im gonna love you forever
E A9 E7M             E7M E A9 
Forever I'll be yours
      E A9 E7M             E7M E A9 
Lady, please never say never
     E A9 E7M             E7M E A9 
For I can't let you go


************************************

| /  Slide up

************************************

            
            
Suggest correction
Creating personal tab
Creating personal tab
You can edit any tab online and save it as your Personal.

You can edit, replace or remove any tab part or add personal notes – all changes will be seen only by you.

Personal tabs can be accessed anytime from any device, even offline.
Learn more »
Give kudos to tab author, rate the tab!
1 2 3 4 5
comments
print report bad tab
guest
You may want to rate the tab now too:
select rating
Wanna post a correction for this tab? Suggest correction