Oops, an error
Loading. Please wait.

El Negro Picante chords

130 views 3 this week
no commentswrite comment
1 2 3 4 5
3 more votes to show rating
add to favorites
×
Save as Personal and add changes to this tab that will be seen only by you. Learn more ›
×
You can save this tab as Personal to edit and correct it or add notes. All changes will be seen only by you. Learn more »
launch autoscroll
font size
0
reset
transpose
0
reset
display chords
guitar tuner
edit
Autoscroll
slow
fast
+/-
esc
set tempo
stop
Author
Difficulty
Strumming
There is no strumming pattern for this song yet. and get +5 IQ
Punteo

e|---0--0--5--4--5--7--8--5--8--7--5--0--5--4--------------------------------|
B|---------------------------------------------5--3~-------------------------|
G|---------------------------------------------------------------------------|
D|---------------------------------------------------------------------------|
A|---------------------------------------------------------------------------|
E|---------------------------------------------------------------------------|

e|---------4--4--4--5--7--4--7--5--4-----------------------------------------|
B|---5--5-----------------------------5--5--3--5/6-5~------------------------|
G|---------------------------------------------------------------------------|
D|---------------------------------------------------------------------------|
A|---------------------------------------------------------------------------|
E|---------------------------------------------------------------------------|

e|---------5--5--5--3--------5--3-----4--5--7--7/8--5------------------------|
B|------5--------------6--3--------6-----------------------------------------|
G|---5-----------------------------------------------------------------------|
D|---------------------------------------------------------------------------|
A|---------------------------------------------------------------------------|
E|---------------------------------------------------------------------------|

e|---------8--7--8--7--10--8--7---------10--8--7--5--------------------------|
B|---5--5------------------------10--9---------------------------------------|
G|---------------------------------------------------------------------------|
D|---------------------------------------------------------------------------|
A|---------------------------------------------------------------------------|
E|---------------------------------------------------------------------------|

e|---------------------------------------------------------------------------|
B|------------1---------------0---------1--0---------------------------------|
G|---------2-----2---------1-----1---2---------------------------------------|
D|------0---------------2---------------------2--2--2--0---------------------|
A|---0---------------0------------------------------------3--2--0~-----------|
E|---------------------------------------------------------------------------|

[Verso 1]
 Am                                       E
Soy un hombre montañero que me vine a divertir
 E                                         Am
Hay perdone los señores que no los deje dormir
 Am                   Dm                   Am
Aunque yo por lo que veo, la gente de la ciudad
 Am                 E                      Am  
No me dan a los Tobillos pa´ beber y parrandiar
 Am                                        E
La bota que uso es 40 y alparagatas cuatro-evillas
 E                                          Am
Por entre mis pantalones siempre cargo una peinilla (A-ha!)
 Am                  Dm                   Am
Para alguno que se antoje conocer un montañero
 Am                 E                        Am
Sin corbata, sin zapatos de carriel y con sombrero

 Am             E                           Am
Y tengo mi morenita que la quiero y que la adoro
 Dm             Am
Y soy un negro picante
 E                      Am
Y tengo tres dientes de oro


(Punteo)

[Verso 2]
 Am                                       E
Hay perdonan los señores que son pura fantasía
 E                                        Am
Que en la billetera cagaran boletas de prendería
 Am             Dm                        Am
Le dicen al cantinero que le sirva una cerveza
 Am              E                        Am
Y se quedan caloriando los tauretes y la mesa
 Am                                      E
El cantinero esperando que manden a destapar
 E                                        Am
Y el señor esta esperando un vale para firmar
 Am                   Dm                       Am
Y en cambio yo que soy guasca y me ven muy maltrajiado
 Am                E                   Am
Tengo billetes de 100 y de 50 por gastarlos

 Am             E                            Am
Y tengo mi morenita que la quiero y que la adoro
 Dm             Am
Y soy un negro picante
 E                      Am
Y tengo tres dientes de oro

(Punteo)

[Verso 3]
 Am                                         E
Cuando llego a la parranda no la quisiera dejar
 E                                         Am
Cuando saco una pareja yo la saco es pa bailar
 Am                    Dm                        Am
La mujer que a mi me quiera tiene que pisar con maña
 Am                E                         Am
Porque soy muy tomatrago y ella vera si se amaña

 Am             E                            Am
Y tengo mi morenita que la quiero y que la adoro
 Dm              Am
Y soy un negro picante
 E                       Am
Y tengo tres dientes de oro

(Punteo)

[Verso 4]
 Am                                         E
Cuando llego a la parranda no la quisiera dejar
 E                                         Am
Cuando saco una pareja yo la saco es pa bailar
 Am                    Dm                        Am
La mujer que a mi me quiera tiene que pisar con maña
 Am                E                         Am
Porque soy muy tomatrago y ella vera si se amaña
 Am             E                            Am
Y tengo mi morenita que la quiero y que la adoro
 Dm              Am
Y soy un negro picante
 E                       Am  E Am
Y tengo tres dientes de oro

            
            
Suggest correction
Creating personal tab
Creating personal tab
You can edit any tab online and save it as your Personal.

You can edit, replace or remove any tab part or add personal notes – all changes will be seen only by you.

Personal tabs can be accessed anytime from any device, even offline.
Learn more »
Give kudos to tab author, rate the tab!
1 2 3 4 5
comments
print report bad tab
guest
You may want to rate the tab now too:
select rating
Wanna post a correction for this tab? Suggest correction