Oops, an error
Loading. Please wait.

En Mi Canoa Chords

118 views 12 this week
no commentswrite comment
1 2 3 4 5
3 more votes to show rating
add to favorites
launch autoscroll
font size
0
reset
transpose
0
reset
display chords
guitar tuner
×
Best way to learn
"En Mi Canoa"
Autoscroll
slow
fast
+/-
esc
set tempo
stop
Author
Difficulty
Capo
  follow
novice
4th fret
About this tab version
Notes on the tab are notated according to the capo on the 4th fret. Was this info helpful? Yes No
[Intro]
e|------0--5--5--7--9--9--5--5--4--2-----------0--4--4--5--7--7--4--2--0---------|
B|----2-------------------------------3~-----0----------------------------2------|
G|--2--------------------------------------1---------------------------------2~--|
D|-------------------------------------------------------------------------------|
A|-------------------------------------------------------------------------------|
E|-------------------------------------------------------------------------------|

e|------0--2--2p0----2--0-------2---------2--0--------2--------------------------|
B|----2-----------2-------3--2-----3p0--0-------3--2-----3p0--0--3-3-------------|
G|--2-----------------------------------------------------------------1--1--1s2--|
D|-------------------------------------------------------------------------------|
A|-------------------------------------------------------------------------------|
E|-------------------------------------------------------------------------------|

[Verse 1]
A                                D
En mi canoa voy subiendo que alegría
                             A
En esta noche de belleza Tropical
                              E
La hermosa Luna sirve de compañía
                               A
Y Mis brazos no se cansan de remar
                               D
Ya las luces se divisen en el puerto
                               A
Ya la Música se escucha desde Aquí
                             E
Están de fiesta morenas y gaiteros
                                A
Corre canoa que me siento muy feliz

[Intro]
e|------0--5--5--7--9--9--5--5--4--2-----------0--4--4--5--7--7--4--2--0---------|
B|----2-------------------------------3~-----0----------------------------2------|
G|--2--------------------------------------1---------------------------------2~--|
D|-------------------------------------------------------------------------------|
A|-------------------------------------------------------------------------------|
E|-------------------------------------------------------------------------------|

e|------0--2--2p0----2--0-------2---------2--0--------2--------------------------|
B|----2-----------2-------3--2-----3p0--0-------3--2-----3p0--0--3-3-------------|
G|--2-----------------------------------------------------------------1--1--1s2--|
D|-------------------------------------------------------------------------------|
A|-------------------------------------------------------------------------------|
E|-------------------------------------------------------------------------------|

{Verse 2}
A                                 D
Tierra caliente donde reina la alegría
                                          A
Donde se encuentra la mujer que es mi ilusión
                                   E
Vengo está a noche a hacerle compañía
                                     A
Vengo a entregarle presuroso el corazón
                                       D
Ella es ardiente como el clima de la costa
                                  A
Es adorable porque a mí me sabe amar
                                 E
Sube canoa la distancia ya muy corta
                                A
Sube que tengo mil deseos de llegar

[Intro]
e|------0--5--5--7--9--9--5--5--4--2-----------0--4--4--5--7--7--4--2--0---------|
B|----2-------------------------------3~-----0----------------------------2------|
G|--2--------------------------------------1---------------------------------2~--|
D|-------------------------------------------------------------------------------|
A|-------------------------------------------------------------------------------|
E|-------------------------------------------------------------------------------|

e|------0--2--2p0----2--0-------2---------2--0--------2--------------------------|
B|----2-----------2-------3--2-----3p0--0-------3--2-----3p0--0--3-3-------------|
G|--2-----------------------------------------------------------------1--1--1s2--|
D|-------------------------------------------------------------------------------|
A|-------------------------------------------------------------------------------|
E|-------------------------------------------------------------------------------|

[Verse 3]
A                                 D
Tierra caliente donde reina la alegría
                                          A
Donde se encuentra la mujer que es mi ilusión
                                   E
Vengo está a noche a hacerle compañía
                                     A
Vengo a entregarle presuroso el corazón
                                       D
Ella es ardiente como el clima de la costa
                                  A
Es adorable porque a mí me sabe amar
                                 E
Sube canoa la distancia ya muy corta
                                A
Sube que tengo mil deseos de llegar

A A A 

************************************

| p  Pull-off
| ~  Vibrato
| s  Slide

************************************
Suggest correction
Give kudos to tab author, rate the tab!
1 2 3 4 5
comments
print report bad tab
guest
You may want to rate the tab now too:
select rating
Wanna post a correction for this tab? Suggest correction