Oops, an error
Loading. Please wait.

Cuando Nadie Te Quiera Tab

68 views 1 this week
no commentswrite comment
1 2 3 4 5
3 more votes to show rating
add to favorites
launch autoscroll
font size
0
reset
how to read this tab
guitar tuner
×
Best way to learn
"Cuando Nadie Te Quiera"
Autoscroll
slow
fast
+/-
esc
set tempo
stop
F
|-5-5-5-6-5-8-8-5-5-6-5-8-3-5-6-5-3-1---|
|-----------------------------------1---|
|-5-5-5-7-5-9-9-5-5-7-5-9-3-5-7-5-3-2---|
|-----------------------------------3---|
|-----------------------------------3---|
|-----------------------------------1---|
Cuando nadie te quiera
        C  D  E         F
Cuando todos te olviden
                                   C
Volveras al camino donde yo me quede
                A#            B           C
Volveras como todas con el alma en pedazos
                 A#                    F
A buscar en mis brazos un poquito de fe
                                           F
Cuando ya de tu orgullo no te quede ni gota
                                   A#
Ya la luz de tus ojos se comienze apagar
                              B         C
Hablaremos entonces del amor de nosotros
Y sabras que mis besos los que tanto desprecias
                 F
Van acerte llorar

(este requinto deve ser poco rapido)
                  A#       B          C
|-10-10-10-12-10-13-13-10-10-10-12-13-12--8-6----|
|-11-11-11-13-11-15-15-11-11-11-13-15-13-10-8----|
|------------------------------------------------|
|------------------------------------------------|
|------------------------------------------------|
|------------------------------------------------|
              A#       B      C
 |-6-6-6-8-6-10-10-6-6-6-8-10-8-5-3----|
 |-------------------------------------|
 |-7-7-7-9-7-10-10-7-7-7-9-10-9-5-3----|
 |-------------------------------------|
 |-------------------------------------|
 |-------------------------------------|

F

Cuando nadie te quiera
                       F
Cuando todos te olviden
                        A#    B          C
Y un destino implacable quiera ver tu final
              B      A#         B        C
Yo estare en el camino donde tu me dejaste
                 A#                        F
Con los brazos abiertos y un amor inmortal

                                             F
Solo quiero que sepas que no se de rencores
                                      A#
Que atravez de mi madre me enseñe a perdonar
                               B              C
Y una vez que conozcas mis tristezas de amores

Aunque tu no quisieras aunque nadie quisiera

Me tendras que adorar
                                       F
               |-5-5-5-6-5-8-3-5-6-5-3-1----|
               |-----------------------1----|
               |-5-5-5-7-5-9-3-5-7-5-3-2----|
               |-----------------------3----|
               |-----------------------3----|
               |-----------------------1----|

A# se puede cambiar a  LA mayor, tonos originales del corazon de un bohemio
Suggest correction
Give kudos to tab author, rate the tab!
1 2 3 4 5
comments
print report bad tab
guest
You may want to rate the tab now too:
select rating
Wanna post a correction for this tab? Suggest correction