Oops, an error
Loading. Please wait.
248 views 36 this week
no commentswrite comment
1 2 3 4 5
3 more votes to show rating
add to favorites
launch autoscroll
font size
0
reset
how to read this tab
guitar tuner
×
Best way to learn
"Despacito"
Autoscroll
slow
fast
+/-
esc
set tempo
stop
esta cancion es una balada espero les guste

primer requinto
e--0-----------1-0-----0--0------------------0-1-------
b-1-3-1-0-1-3-3---3-1-3--1--3-1-0-1-3-3-0-0-2----1-0-3-
g------------------------------------------------------
d------------------------------------------------------
a------------------------------------------------------
e------------------------------------------------------

e------------------------------------------------------
b-1-0-1-0-1-0-1-0-1-0----------------------------------
g-------------------1----------------------------------
d-------------------2----------------------------------
a-------------------2----------------------------------
e------------------------------------------------------

segundo requinto

e--------------------------------0-----0---0-----------
b-----0------------0---3-2-0-2-3---3-2---3---3-2-0-2-3-
g-1-2---1-2-2--1-2-------------------------------------
d-------------4----------------------------------------
a--------------------2---------------------------------
e------------------------------------------------------


e------------------------------------------------------
b-2-0--------------------------------------------------
g------------------------------------------------------
d------------------------------------------------------
a------------------------------------------------------
e------------------------------------------------------


NOTA: el primer requinto se toca para la introduccion
el segundo es para el intermedio...
Suggest correction
Give kudos to tab author, rate the tab!
1 2 3 4 5
comments
print report bad tab
guest
You may want to rate the tab now too:
select rating
Wanna post a correction for this tab? Suggest correction